Frontlines

Soulfly

Composição de: Max Cavalera
tom: Db
Tabbed by: Stoten123
Email: *

Tuning: Standard (E A D G B E)

Intro:
  E E |-Q-| E E E  E   E E |-Q-| E E E  E
|--------------------|--------------------|
|--------------------|--------------------|
|--------------------|--------------------|
|-----8h9p8----------|-----8h9p8----------|
|-------------9h10p9-|-------------9h10p9-| x4
|-0-0-------0--------|-0-0-------0--------|

Verse:
  E E E E Q   |--E--|E 
|----------------------|
|----------------------|
|----------------------|
|-9---9---8------------|
|-------------9h10p9-7-| x8
|---0---0--------------|

Then play intro riff x4

  E E E E Q   |--E--|E 
|----------------------|
|----------------------|
|----------------------|
|-9---9---8------------|
|-------------9h10p9-7-| x8
|---0---0--------------|

Pre Chorus:
  E E E E E E E E   E E E E E E E E 
|-----------------|-----------------|
|-----------------|-----------------|
|-----------------|-----------------|
|-----------------|-----------------|
|-4-4-5-8-4-4-5-8-|-4-4-5-8-9-9-8-5-| x4
|-2-2-3-6-2-2-3-6-|-2-2-3-6-7-7-6-3-|

Chorus:
  Q   E E Q   E E   Q   E E Q   E E 
|-----------------|-----------------|
|-----------------|-----------------|
|-----------------|-----------------|
|-----------------|-----------------|
|-4---5-8-4---5-8-|-4---5-8-9---6-5-| x4
|-2---3-6-2---3-6-|-2---3-6-7---8-3-|

Pre Solo:
  Q   E E Q   E E   Q   E E Q   E E 
|-----------------|-------6-6---7-9-|
|---------------2-|-7---8-----------|
|-------3-3---4---|-----------------|
|-4---5-----------|-----------------|
|-----------------|-----------------|
|-----------------|-----------------|

I dont know the solo

Pre Bridge:
  E E |-Q-| E Q   +E   E E |-Q-| E Q  +E
|--------------------|-------------------|
|--------------------|-------------------|
|--------------------|-------------------|
|-----8h9p8----------|----8h9p8----------|
|--------------------|-------------------|
|-0-0-------0-0------|-0-0-------0-0-----|

Bridge:
  E E E E (Q) E E   E E E E (Q) E E 
|-----------------|-----------------|
|-----------------|-----------------|
|-----------------|-----------------|
|-----------------|-----------------|
|-2-2-2-2-----2-2-|-2-2-2-2-----2-2-|
|-0-0-0-0-----0-0-|-0-0-0-0-----0-0-|
  - - - -     - -   - - - -     - -  

  E E E E (Q) E E   E E E E E E E E 
|-----------------|-----------------|
|-----------------|-----------------|
|-----------------|-----------------|
|-----------------|-----------------|
|-2-2-2-2-----2-2-|-2-2-2-2-2-2-2-2-|
|-0-0-0-0-----0-0-|-0-0-0-0-0-0-0-0-|
  - - - -     - -   - - - - - - - -

Outro solo: (This isnt exactly correct)
  |--E--|E  |Q| H     |--E--|E  |Q| H
|-8h10p8-7----------|-8h10p8-7------7---|
|-----------8p7-5---|-----------7h8-----|
|-------------------|-------------------|
|-------------------|-------------------|
|-------------------|-------------------|
|-------------------|-------------------|


| h  hammer-on
| p  pull-off
|
| Q  quarter note
| E  eighth note
===============================================================================
Página 1 / 1

Letras e título
Acordes e artista

resetar configurações
OK