Fuel The Hate

Soulfly

Composição de: Max Cavalera
tom: D
Album: Dark ages

Drop b



Listen to song for how many times
< Fuel the hate!>
-------------------|
-------------------|
-------------------|
-------2--23232323-|
----222-22---------|
----222-22---------|

------------------------------------------------------|
------------------------------------------------------|
------------------------------------------------------|
------------------------------------------------------|
----2(2)-2(2)-2(2)-2(2)-2(2)-2(2)-2(2)-2(2)-2(2)-2(2)-|x2
----2(2)-2(2)-2(2)-2(2)-2(2)-2(2)-2(2)-2(2)-2(2)-2(2)-|

< Fuel the hate!>
-------------------|
-------------------|
-------------------|
-------2--23232323-|
----222-22---------|
----222-22---------|

------------------------------------------------------|
------------------------------------------------------|
------------------------------------------------------|
------------------------------------------------------|
----2(2)-2(2)-2(2)-2(2)-2(2)-2(2)-2(2)-2(2)-2(2)-2(2)-|x2
----2(2)-2(2)-2(2)-2(2)-2(2)-2(2)-2(2)-2(2)-2(2)-2(2)-|

-----------------|
-----------------|
-----------------|
-------2---22235-|
----222-222------|
----222-222------|


solo 1

-19-20-19-20-19-20-19-20-19-20-19-20-19-20-19-20--|
--------------------------------------------------|
--------------------------------------------------|
--------------------------------------------------|
--------------------------------------------------|
--------------------------------------------------|

email me the rest of the solo please




< Fuel the hate!>
-------------------|
-------------------|
-------------------|
-------2--23232323-|
----222-22---------|
----222-22---------|

Um, Dois, Tres, Quatro...
--------------------|
--------------------|
--------------------|
----9-8-8-7-7-6-6-5-|
----7-6-6-5-5-4-4-3-|
----8-7-7-6-6-5-5-4-|

---------------------------------|
---------------------------------|
---------------------------------|
----2-----0------5------4------2-|
---------------------------------|
---------------------------------|



tabbed by jack
email: *
Página 1 / 1

Letras e título
Acordes e artista

resetar configurações
OK