Quilombo

Soulfly

Composição de: Max Cavalera
tom: C
Submitted by Tim (*).

(Guitar 1)
|--------------------------------------------------------------------------------------------------------|
|--------------------------------------------------------------------------------------------------------|
|--------------------------------------------------------------------------------------------------------|
|--------------------------------------------------------------------------------------------------------|
|--------------------------------------------------------------------------------------------------------|
|-12-12-12-12-12-12-12-12-12-12-12-12-12-12-12-12-0--12-12-12-0--|

(Guitar 2)
|---------------------------------|
|---------------------------------|
|---------------------------------|
|---------------------------------|
|---2-2--22-2----------------|
|---2-2--22-2----------------|

(Guitars 1&2)
|---------|-------------------|
|-----0--|-------------------|
|-----4--|-------------------|
|---------|-------------------|
|-0-0---|-0-0-1-0-0-1-|
|-0-0---|-0-0-1-0-0-1-|

 Outro (not exactly right)
|----------------------------------------|
|----------------------------------------|
|----------------------------------------|
|----------------------------------------|
|-2-2-2-3-3-3-4-4-4-5-5--5\-|
|-2-2-2-3-3-3-4-4-4-5-5--5\-|





Página 1 / 1

Letras e título
Acordes e artista

resetar configurações
OK