Cifra Club

Burden In My Hand

Soundgarden

Cifra: Principal (violão e guitarra)
Tom: C

E|-----0-0-0-0-0-0--------3-3h5p3-3---------5-5-5--3-3-3-3-3-0-0-0-0h2p0-|
G|-----0-0-0-0-0-0--------3-3h5p3-3---------5-5-5--3-3-3-3-3-0-0-0-0h2p0-|
G|-----0-0-0-0-0-0--------3-3h5p3-3---------5-5-5--3-3-3-3-3-0-0-0-0h2p0-|
C|-0-0---------------0-0-------------------------------------------------|
G|-------------------------------------3-3-------------------------------|
C|-----------------------------------------------------------------------|

Pre chorus: Oh no..there she goes....

E|---------3-3-3/5-5-5-----5-5-5-3-3-3-|
G|---------3-3-3/5-5-5-----5-5-5-3-3-3-|
G|---------3-3-3/5-5-5-----5-5-5-3-3-3-| 1x
C|---------3-3-3/5-5-5-----5-5-5-3-3-3-|
G|---------3-3-3/5-5-5-----5-5-5-3-3-3-|
C|-------------------------------------|

E|-----------------------|
G|-----------------------|
G|-----------------------| 
C|-----------------------|
G|-3h5h3p0---------------|
C|-----------------------|

E|-5-5-5-3-3----5-5-3-3h5p3--5-5-3h5p3--5-5-5p3--3h5p3-|
G|-5-5-5-3-3----5-5-3-3h5p3--5-5-3h5p3--5-5-5p3--3h5p3-|
G|-5-5-5-3-3----5-5-3-3h5p3--5-5-3h5p3--5-5-5p3--3h5p3-|
C|-5-5-5-3-3----5-5-3-3-3-3--5-5-3-3-3--5-5------3-3-3-|
G|-5-5-5-3-3----5-5-3-3-3-3--5-5-3-3-3--5-5------3-3-3-|
C|-----------------------------------------------------|


   8x   8x   3x  5x
E|-12---10---8---6---10-6-6-5----|
G|-12---10---8---6---10-6-6-5----|
G|-12---10---8---6---10-6-6-5----|
C|-12---10---8---6---10-6-6-5----|
G|-12---10---8---6---10-6-6-5----|
C|-12---10---8---6---10-6-6-5----|

Bridge: Just a burden..tumor...anchor...

E|-0-2-3---3h5p3---3h5p3---3-5-6---0-2-3---3h5p3-10-6-6-5----|
G|-0-2-3---3h5p3---3h5p3---3-5-6---0-2-3---3h5p3-10-6-6-5----|
G|-0-2-3---3h5p3---3h5p3---3-5-6---0-2-3---3h5p3-10-6-6-5----|
C|-----------------------------------------------10-6-6-5----|
G|-----------------------------------------------10-6-6-5----|
C|-----------------------------------------------10-6-6-5----|


Tab with Lyrics

Verse:

E|-----0-0-0-0-0-0--------3-3h5p3-3---------5-5-5--3-3-3-3-3-0-0-0-0h2p0-|
G|-----0-0-0-0-0-0--------3-3h5p3-3---------5-5-5--3-3-3-3-3-0-0-0-0h2p0-|
G|-----0-0-0-0-0-0--------3-3h5p3-3---------5-5-5--3-3-3-3-3-0-0-0-0h2p0-|
C|-0-0---------------0-0-------------------------------------------------|
G|-------------------------------------3-3-------------------------------|
C|-----------------------------------------------------------------------|


Pre chorus:

E|---------3-3-3/5-5-5-----5-5-5-3-3-3-|
G|---------3-3-3/5-5-5-----5-5-5-3-3-3-|
G|---------3-3-3/5-5-5-----5-5-5-3-3-3-| 1x
C|---------3-3-3/5-5-5-----5-5-5-3-3-3-|
G|---------3-3-3/5-5-5-----5-5-5-3-3-3-|
C|-------------------------------------|

E|-------------------------------------|
G|-------------------------------------|
G|-------------------------------------| 
C|-------------------------------------|
G|-3h5h3p0-----------------------------|
C|-------------------------------------|

E|---------3-3-3/5-5-5-----5-5-5-3-3-3-|
G|---------3-3-3/5-5-5-----5-5-5-3-3-3-|
G|---------3-3-3/5-5-5-----5-5-5-3-3-3-| 1x
C|---------3-3-3/5-5-5-----5-5-5-3-3-3-|
G|---------3-3-3/5-5-5-----5-5-5-3-3-3-|
C|-------------------------------------|

E|--------|
G|--------|
G|--------| 
C|--------|
G|-3h5h3p0|
C|--------|


E|-5-5-5-3-3----5-5-3-3h5p3--5-5---3h5p3---5--5--5p3--3h5p3------------------|
G|-5-5-5-3-3----5-5-3-3h5p3--5-5---3h5p3---5--5--5p3--3h5p3- G|-5-5-5-3-3----|
G|-5-5-3-3h5p3--5-5---3h5p3---5--5--5p3--3h5p3------------------------------|
C|-5-5-5-3-3----5-5-3-3-3-3--5-5---3-3-3---5--5-------3-3-3------------------|
G|-5-5-5-3-3----5-5-3-3-3-3--5-5---3-3-3---5--5-------3-3-3------------------|
C|---------------------------------------------------------------------------|
out in the sunshine sun is mine sun is mine

Chorus:
8x      8x      3x      5x
E|-12-----------10-------------8---------6-------------10-6-6-5----|
G|-12-----------10-------------8---------6-------------10-6-6-5----|
G|-12-----------10-------------8---------6-------------10-6-6-5----|
C|-12-----------10-------------8---------6-------------10-6-6-5----|
G|-12-----------10-------------8---------6-------------10-6-6-5----|
C|-12-----------10-------------8---------6-------------10-6-6-5----|
I shot my       love today would you cry for me



Bridge:
E|-0---2-3------------------------3h5p3---3h5p3--------------------------3-5-6-|
G|-0---2-3------------------------3h5p3---3h5p3--------------------------3-5-6-|
G|-0---2-3------------------------3h5p3---3h5p3--------------------------3-5-6-|
C|-----------------------------------------------------------------------------|
G|-----------------------------------------------------------------------------|
C|-----------------------------------------------------------------------------|
It's just a burden in my hand   it's just an anchor on my heart

E|-0-2-3--------------------3h5p3-----------------------10-6-6-5-|
G|-0-2-3--------------------3h5p3-----------------------10-6-6-5-|
G|-0-2-3--------------------3h5p3-----------------------10-6-6-5-|
C|------------------------------------------------------10-6-6-5-|
G|------------------------------------------------------10-6-6-5-|
C|------------------------------------------------------10-6-6-5-|
it's just a tumor in my head    and I'm in the dark




exibições 9.790
Acordes para:
    Composição: Chris Cornell

    0 comentários

    mostrar mais comentários

    Conseguiu tocar?

    0 tocaram 0 ainda não

    Grave um vídeo tocando Burden In My Hand e mande pra gente!

    00:00 / 00:00
    outros vídeos desta música
    repetir qualidade Automático
    Outros vídeos desta música
    00:00 / 00:00
    Automático
    OK