Cifra Club

Aprenda

Day I Tried To Live

Soundgarden

Cifra: Principal (violão e guitarra)
tom: F
guitar 1:

E|--12----10--9-12\7--6---|-6--6/8-8/10----------------|    
B|------------------------|----------------------------| 6x
G|------------------------|----------------------------|
D|------------------------|----------------------------|
A|------------------------|----------------------------|
E|------------------------|----------------------------|

guitar 2 (clear tone):



E|------------------------|-7\12--12--12/7--7--7\12----|    
B|------------------------|----------------------------|  4x  
G|------------------------|----------------------------|
D|------------------------|----------------------------|
A|------------------------|----------------------------|
E|------------------------|----------------------------|

E|-12/7--7--7\12--12-13/7-|               E|--14/8-8\14-14\8-14/7-|
B|------------------------|    then this  B|----------------------|
G|------------------------|               G|----------------------|
D|------------------------|               D|----------------------|
A|------------------------|               A|----------------------|
E|------------------------|               E|----------------------|

E|----------------------------------------------------------------------|
B|----------------------------------------------------------------------|
G|----------------------------------------------------------------------|
D|12-12-12-12-12---12-12/11-11/10--10-10-10-10-10---10/9-9/8--8-8-8-8-8-|
A|----------------------------------------------------------------------|
E|----------------------------------------------------------------------|

E|-7-7-7-7-7--7-7/6-6/5--5-5-5-5-5--5-5/4-4/3-3-3-|
B|-7-7-7-7-7--7-7/6-6/5--5-5-5-5-5--5-5/4-4/3-3-3-|
G|-8-8-8-8-8--8-8/7-7/6--6-6-6-6-6--6-6/5-5/4-4-4-|
D|-9-9-9-9-9--9-9/8-8/7--7-7-7-7-7--7-7/6-6/5-5-5-|
A|-9-9-9-9-9--9-9/8-8/7--7-7-7-7-7--7-7/6-6/5-5-5-|
E|-7-7-7-7-7--7-7/6-6/5--5-5-5-5-5--5-5/4-4/3-3-3-|
Composição de Chris Cornell
3.322 exibições
    • ½ Tom
    • A
    • Bb
    • B
    • C
    • Db
    • D
    • Eb
    • E
    • F
    • F#
    • G
    • Ab
  • Adicionar à lista

    0 comentários

    Ver todos os comentários

    Conseguiu tocar?

    0 Tocaram 0 Ainda não

    Grave um vídeo tocando Day I Tried To Live e nos envie!

    00:00 / 00:00
    outros vídeos desta música
    repetir qualidade Automático
    Outros vídeos desta música
    00:00 / 00:00
    Automático

    Cifra Club Pro

    Aproveite o Cifra Club com benefícios exclusivos e sem anúncios
    Cifra Club Pro
    Aproveite o Cifra Club com benefícios exclusivos e sem anúncios
    OK