Cifra Club

Aprenda

Live To Rise

Soundgarden

Cifra: Principal (violão e guitarra)
tom: G
Intro:
E|----------------------------------------------|
B|----------------------------------------------|
G|----------------------------------------------|
D|----------------------------------------------|
A|--0-0-5--0-5-5-0-5-5-----0-0-5--0-5-5-0-5-5---|
E|----------------------------------------------|

E|--------------------------------------------------------------------------------|
B|--------------------------------------------------------------------------------|
G|--------------------------------------------------------------------------------|
D|---------------------------5p4---------------------------7---5p4----------------|
A|--0-0-5--0-5-5-0-5-5--7p0------5p0---0-0-5--0-5-5-0-5-5----0-----5p0------------|
E|--------------------------------------------------------------------------------|

E|--------------------------------------------------------------|
B|--------------------------------------------------------------|
G|--------------------------------------------------------------|
D|------------------------5/7-7-7-7-----------------------------|
A|--0-0-5--0-5-5-0-5-5--5---------------------------------------|
E|--------------------------------------------------------------|

E|--------------------------------------------------------------------------------|
B|--------------------------------------------------------------------------------|
G|--------------------------------------------------------------------------------|
D|---------------------------5p4---------------------------7---5p4----------------|
A|--0-0-5--0-5-5-0-5-5--7p0------5p0---0-0-5--0-5-5-0-5-5----0-----5p0------------|
E|--------------------------------------------------------------------------------|

Versos:
Em                    C
What if all you understand,
     G                          A
Could fit into the center of our hand,
Em                      C
Then you found it wasn't you,
    G                             A
Who held the sum of everything you knew,
C                    G                             F Em  D
We're insane but not alone, you hold on, and their gone

Refrão 1:
E|-------------------------------------------------------------------|
B|-------------------------------------------------------------------|
G|-------------------------------------------------------------------|
D|--777/999-7-----777/999-7-----777/999-7-----777/999-7--------------|
A|--555/777-5-77--555/777-5-99--555/777-5-77--555/777-5-99-10-10-----|
E|------------55------------77------------55------------77-8--8------|

E|-------------------------------------------------------------------|
B|-------------------------------------------------------------------|
G|-------------------------------------------------------------------|
D|--5-5---4----------------------------------------------------------|
A|--3-3-5-2----------------------------------------------------------|
E|------3------------------------------------------------------------|

E|-------------------------------------------------------------------|
B|-------------------------------------------------------------------|
G|-------------------------------------------------------------------|
D|--777/999-7--------------------------------------------------------|
A|--555/777-5-77-10-10-----------------------------------------------|
E|------------55-8--8------------------------------------------------|

Verso 2:
Em                           C
What if the one thing that I missed,
         G                       A
Was everything I need to pass the test,
Em                         C
And if I fail what happens then,
    G                         A
Can I still count on you as a friend,
C                    G                             F Em  D
We're insane but not alone, you hold on, and their gone

Refrão 2:
E|-------------------------------------------------------------------|
B|-------------------------------------------------------------------|
G|-------------------------------------------------------------------|
D|--777/999-7-----777/999-7-----777/999-7-----777/999-7--------------|
A|--555/777-5-77--555/777-5-99--555/777-5-77--555/777-5-99-10-10-----|
E|------------55------------77------------55------------77-8--8------|

E|-------------------------------------------------------------------|
B|-------------------------------------------------------------------|
G|-------------------------------------------------------------------|
D|--5-5---4----------------------------------------------------------|
A|--3-3-5-2----------------------------------------------------------|
E|------3------------------------------------------------------------|

E|-------------------------------------------------------------------|
B|-------------------------------------------------------------------|
G|-------------------------------------------------------------------|
D|--777/999-7-------------------------777/999------------------------|
A|--555/777-5-77-10-10----------------555/777------------------------|
E|------------55-8--8------------------------------------------------|

E|---------------------------------|
B|------------0--------------------|
G|------------0--------------------|
D|--8---------2--------9--------7--|
A|--6---------2--------7--------5--|
E|------------0--------------------|

Ponte:
E|----0-2-3-5----0-2-3-5--------------------------------------------|
B|--3-3-3-3-3--3-3-3-3-3--------------------------------------------|
G|--0-0-0-0-0--0-0-0-0-0--------------------------------------------|
D|--0-0-0-0-0--0-0-0-0-0--------------------------------------------|
A|--3-3-3-3-3--3-3-3-3-3--------------------------------------------|
E|------------------------------------------------------------------|

E|----0-2-3-5----0-2-3-5--------------------------------------------|
B|--3-3-3-3-3--3-3-3-3-3--------------------------------------------|
G|--0-0-0-0-0--0-0-0-0-0--------------------------------------------|
D|--2-2-2-2-2--2-2-2-2-2--------------------------------------------|
A|--0-0-0-0-0--0-0-0-0-0--------------------------------------------|
E|------------------------------------------------------------------|

E|----0-2-3-5----0-2-3-5--------------------------------------------|
B|--3-3-3-3-3--3-3-3-3-3--------------------------------------------|
G|--0-0-0-0-0--0-0-0-0-0--------------------------------------------|
D|--0-0-0-0-0--0-0-0-0-0--------------------------------------------|
A|--3-3-3-3-3--3-3-3-3-3--------------------------------------------|
E|------------------------------------------------------------------|

E|----0-2-3-5----0-2-3-5--------------------------------------------|
B|--3-3-3-3-3--3-3-3-3-3--------------------------------------------|
G|--0-0-0-0-0--0-0-0-0-0--------------------------------------------|
D|--2-2-2-2-2--2-2-2-2-2--------------------------------------------|
A|--0-0-0-0-0--0-0-0-0-0--------------------------------------------|
E|------------------------------------------------------------------|

E|----0-2-3-5----0-2-3-5---------------------------------------------|
B|--3-3-3-3-3--3-3-3-3-3--9------------------------------------------|
G|--2-2-2-2-2--2-2-2-2-2--9------------------------------------------|
D|--0-0-0-0-0--0-0-0-0-0--9------------------------------------------|
A|------------------------7------------------------------------------|
E|-------------------------------------------------------------------|

Refrão 3:
E|-------------------------------------------------------------------|
B|-------------------------------------------------------------------|
G|-------------------------------------------------------------------|
D|--777/999-7-----777/999-7-----777/999-7-----777/999-7--------------|
A|--555/777-5-77--555/777-5-99--555/777-5-77--555/777-5-99-10-10-----|
E|------------55------------77------------55------------77-8--8------|

E|-------------------------------------------------------------------|
B|-------------------------------------------------------------------|
G|-------------------------------------------------------------------|
D|--5-5---4----------------------------------------------------------|
A|--3-3-5-2----------------------------------------------------------|
E|------3------------------------------------------------------------|

E|-------------------------------------------------------------------|
B|-------------------------------------------------------------------|
G|-------------------------------------------------------------------|
D|--777/999-7--------------------------------------------------------|
A|--555/777-5-77-10-10-----------------------------------------------|
E|------------55-8--8------------------------------------------------|

E|-------------------------------------------------------------------|
B|---------0---------------------------------------------------------|
G|---------0---------------------------------------------------------|
D|--888----2---------------------------------------------------------|
A|--666----2---------------------------------------------------------|
E|---------0---------------------------------------------------------|
Composição de Chris Cornell
Colaboração e revisão:
  • Raphael
11.430 exibições
    • ½ Tom
    • A
    • Bb
    • B
    • C
    • Db
    • D
    • Eb
    • E
    • F
    • F#
    • G
    • Ab
  • Adicionar à lista

    0 comentários

    Ver todos os comentários

    Conseguiu tocar?

    7 Tocaram 0 Ainda não

    Grave um vídeo tocando Live To Rise e nos envie!

    00:00 / 00:00
    Outros vídeos desta música
    Repetir Qualidade Automático
    Outros vídeos desta música
    00:00 / 00:00
    Automático

    Cifra Club Pro

    Aproveite o Cifra Club com benefícios exclusivos e sem anúncios
    Cifra Club Pro
    Aproveite o Cifra Club com benefícios exclusivos e sem anúncios
    OK