Pretty Noose

Soundgarden

Composição de: Chris Cornell
tom: C
Intro Riffs:



E|------------------------------------------|
B|------------------------------------------|
G|-------3^4-----------------3^4------5^6---|
D|----5------3-2-----------5------2-3-------|
A|--3-------------1--3---3------------------|
E|------------------------------------------|

E|------------------------------------------|
B|------------------------------------------|
G|-------3^4-----------------3^4------------|
D|----5------3-2-----------5------2-3--3^4--|
A|--3-------------1--3---3------------------|
E|------------------------------------------|

E|------------------------------------------|
B|------------------------------------------|
G|-------3^4-----------------3^4------5^6---|
D|----5------3-2-----------5------2-3-------|
A|--3-------------1--3---3------------------|
E|------------------------------------------|

E|------------------------------------------|
B|------------------------------------------|
G|-------3^4-----------------3^4------5^6---|
D|----5------3-2-----------5------2-3-------|
A|--3-------------1--3---3------------------|
E|------------------------------------------|

E|------------------------------------------|
B|------------------------------------------|
G|----------12--------12--10----10-9-9------|
D|--10--10------10-10--------10-------------|
A|------------------------------------------|
E|------------------------------------------|

E|------------------------------------------|
B|------------------------------------------|
G|----------12--------12--10----10-9-9------|
D|--10--10------10-10--------10-------------|
A|------------------------------------------|
E|------------------------------------------|
Página 1 / 1

Letras e título
Acordes e artista

resetar configurações
OK