Cifra Club

Aprenda

To Be Continued

South América Memes

Cifra: Principal (violão e guitarra)
tom: G
Intro: (H.n = Harmônico natural)
   H.n     H.n
E|---------12~---------------------|
B|---------12~---------------------|
G|---------12~---------------------|
D|---------------------------------|
A|-12~-----------------------------|
E|---------------------------------|

E|------------------------------------------------------------|
B|-7-8-5P7H5--5-----------------------------------------------|
G|----------------7---5---4----7---4---5-------4--------------|
D|-----------------------------------------7------5----7----4-|
A|------------------------------------------------------------|
E|------------------------------------------------------------|

E|-----------------------------| E|---------------------|
B|-----------------------------| B|---------------------|
G|-----------------------------| G|---------------------|
D|-2-2--4---5--4-5-4-2---------| D|-2-2--4--5-4-2-------| (INTERVALO)
A|-----------------------------| A|---------------------|
E|-----------------------------| E|---------------------|

  Intervalo : 
E|-----------------------------|
B|-----------------------------|
G|-----------------------------|
D|-----------------------------|
A|-------7p5-------2p0---------|
E|----------7p5--------0-------|

  Repete (1x)
E|-----------------------------| E|---------------------|
B|-----------------------------| B|---------------------|
G|-----------------------------| G|---------------------|
D|-2-2--4---5--4-5-4-2---------| D|-2-2--4--5-4-2-------| 
A|-----------------------------| A|---------------------|
E|-----------------------------| E|---------------------|
Colaboração e revisão:
  • Lucas Bnd
  • alexandre alves
26.726 exibições
    • ½ Tom
    • A
    • Bb
    • B
    • C
    • Db
    • D
    • Eb
    • E
    • F
    • F#
    • G
    • Ab
  • Adicionar à lista

    0 comentários

    Ver todos os comentários

    Conseguiu tocar?

    9 Tocaram 8 Ainda não

    Grave um vídeo tocando To Be Continued e nos envie!

    00:00 / 00:00
    outros vídeos desta música
    repetir qualidade Automático
    Outros vídeos desta música
    00:00 / 00:00
    Automático

    Cifra Club Pro

    Aproveite o Cifra Club com benefícios exclusivos e sem anúncios
    Cifra Club Pro
    Aproveite o Cifra Club com benefícios exclusivos e sem anúncios
    OK