Cifra Club

Gimme Some Money

Spinal Tap

Tab de baixo: Principal
+++++++++++++++++++++++++++++++++++++++++++++++++++++++++++++++++++++++++++++++
+++++++++++++++++++++++++++++++++++++++++++++++++++++++++++++++++++++++++++++++

My Favorite part in this song is " Don't Get me Wrong, Try Gettin me right,
Your Face is okay, but you purse is too tight, I'm Lookin for pound notes loose change 
checks anything" ha ha


tabbed by bass master jim cottrell
e-mail - *

intro

g ---------------|
d 7-7-7-7-7-7-7--|
a ---------------|
e ---------------|

verse

g --------7------|
d ------7--------|   x 2
a --7-7------7---|
e ---------------|

g -----7-5-------|
d -7-7-------7---|
a ---------------|
e ---------------|

g --------7------|
d ------7--------|
a --7-7------7---|
e ---------------|

g ------9--7-----|
d -9-9-------9---|
a ---------------|
e ---------------|

bridge

g --------7-----7--|
d ------7-----7----|
a 9/7-7-----7----7-|
e -----------------|

g --------7-----7--|
d ------7-----7----|
a --7-7-----7----7-|
e -----------------|

g --------------------|
d 7-88-7-88-7-7-7-7-7-|
a --------------------|
e --------------------|

verse and bridge again

then the solo

g --------7-----7--------|
d ------7-----7---   x 2-|
a --7-7-----7----7-------|
e -----------------------|

g -----7-5-----7-5----|
d -7-7-------7------7-|
a --------------------|
e --------------------|

g --------7-----7--|
d ------7-----7----|
a --7-7-----7----7-|
e -----------------|

g ------9--7-----|
d -9-9-------9---|
a ---------------|
e ---------------|

pause for a bit whilst the ending of the solo is being played

then play the bridge whilst "gimme some money is being sang"

verse again followed by


g --------7-----7--|
d ------7-----7----|
a 9/7-7-----7----7-|
e -----------------|

g --------7-----7--|
d ------7-----7----|
a --7-7-----7----7-|
e -----------------|

++++++++++++++++++++++++++++++++++++++++++++++++++++++++++++++++++++++++++++
Composição de Christopher Guest / Harry Shearer / Michael McKean / Rob Reiner
170 exibições

0 comentários

Ver todos os comentários

Conseguiu tocar?

0 Tocaram 0 Ainda não

Grave um vídeo tocando Gimme Some Money e nos envie!

00:00 / 00:00
Outros vídeos desta música
Repetir Qualidade Automático
Outros vídeos desta música
00:00 / 00:00
Automático

Cifra Club Pro

Aproveite o Cifra Club com benefícios exclusivos e sem anúncios
Cifra Club Pro
Aproveite o Cifra Club com benefícios exclusivos e sem anúncios
OK