Cifra Club

Tonight Im Gonna Rock You Tonight

Spinal Tap

Cifra: Principal (violão e guitarra)
tom: C
          Introdução -

E|---------------------------------------------------|          
B|---------------------------------------------------|          
G|------------------5-----5-2-22---------------------|             Riff 1
D|------------------3-----3-0-00---------------------|          
A|--5-7-77-5-2-2--5---5-3----------------------------|          
E|--3-5-55-3-0-0--3---3-1----------------------------|          

E|--------------|          
B|--------------|          
G|-5/7-5/6------|           8X riff 2
D|--------------|          
A|--------------|          
E|--------------|          

E|------------------------------------------------------|          
B|------------------------------------------------------|          
G|--7b-7b-7b-7b-7b-7b-7b-7b5b-5b-5--3-5--3-3-0---12\1---|           riff 3
D|------------------------------------------------------|          
A|------------------------------------------------------|          
E|------------------------------------------------------|          

            Verso:
E|------------------------------------------------------------------|          
B|------------------------------------------------------------------|          
G|------------------------------------------------------------------|          
D|--5/7~----9/10~-----10\---2~---2-4-2-4-2-4-2----------------------|          
A|--3/5~----7/8~-------8\---0~---0-0-0-0-0-0-0----------------------|          
E|------------------------------------------------------------------|          

E|------------------------------------------------------------------|          
B|------------------------------------------------------------------|          
G|------------------------------------------------------------------|          
D|--5/7~----9/10~-----10\---4~---4-6-4-6-4-6-4----------------------|          
A|--3/5~----7/8~-------8\---2~---0-0-0-0-0-0-0----------------------|          
E|------------------------------------------------------------------|          


          Refrão :

E|---------------------------------------------------------------------|
B|---------------------------------------------------------------------|
G|7b-7b-7b-7b-9b-9b-9b-9b-12b-12b-12b-8-5---------------------------|------------------------------------------------------------------| 
D|----------------------------------------------------------------7b---|
A|---------------------------------------------------------------------|
E|---------------------------------------------------------------------|

           Estrofe 2  - A,G,C,F,G

      Repete Refrão

E|--------------------------------------------
B|--------------------------------------------
G|--------------------------------------------
D|--------------------------------7---------- } 3x
A|-------------------------------------------
E|-5-5-7-7-5-5-7-7-5-5-7----------------


Estrofe 3 - A,G, C , F ,G

Repete refrão..

Solo Final- c/ tapping

E|---------------------------------------------------------------------------|
B|--13T10-13T10-13T10-13T10-13T10-13T10-13T10-13T10-13T10-13T10-13T10-13T10--|
G|---------------------------------------------------------------------------|
D|---------------------------------------------------------------------------|
A|---------------------------------------------------------------------------|
E|---------------------------------------------------------------------------|

E|-------------------------------------------------------------------------------------|
B|--13T10-13T10-13T10^^-13T10^^-13T10^^-13T10^^-13T10^^-13T10b-13T10-13T10-13T10-13T10-|
G|-------------------------------------------------------------------------------------|
D|-------------------------------------------------------------------------------------|
A|-------------------------------------------------------------------------------------|
E|-------------------------------------------------------------------------------------|

E|---------------------------------------------------|          
B|---------------------------------------------------|          
G|------------------5-----5-2-22---------------------|             Riff 1 (2x)
D|------------------3-----3-0-00---------------------|          
A|--5-7-77-5-2-2--5---5-3----------------------------|          
E|--3-5-55-3-0-0--3---3-1----------------------------|          
Composição de Christopher Guest / Harry Shearer / Michael McKean / Rob Reiner
Colaboração e revisão:
  • Marcelo Boscato
  • Eliakin sá
2.065 exibições
    • ½ Tom
    • A
    • Bb
    • B
    • C
    • Db
    • D
    • Eb
    • E
    • F
    • F#
    • G
    • Ab
  • Adicionar à lista

    0 comentários

    Ver todos os comentários

    Conseguiu tocar?

    0 Tocaram 0 Ainda não

    Grave um vídeo tocando Tonight Im Gonna Rock You Tonight e nos envie!

    00:00 / 00:00
    Outros vídeos desta música
    Repetir Qualidade Automático
    Outros vídeos desta música
    00:00 / 00:00
    Automático

    Cifra Club Pro

    Aproveite o Cifra Club com benefícios exclusivos e sem anúncios
    Cifra Club Pro
    Aproveite o Cifra Club com benefícios exclusivos e sem anúncios
    OK