Cifra Club

Tonight Im Gonna Rock You

Spinal Tap

Cifra: Versão 4 (violão e guitarra)
tom: Db
Main riff:
E |-------------------------------------|
H |-------------------------------------|
G |-----------------5-----5-------------|
D |-5--7-7-5------5-5-5---5-7-7---------|
A |-5--7-7-5--7-7-5---5-8---7-7---------|
E |-----------7-7-------8---------------|

Verse:
E |-------------------------------------|
H |-------------------------------------|
D |-------------------------------------|
G |-5-7--9-10-2---4---2---4---2---4---2-|
A |-3-5--7--8-0-0-0-0-0-0-0-0-0-0-0-0-0-|
E |-------------------------------------|

E |-------------------------------------------------------------------|
H |-------------------------------------------------------------------|
G |-------------------------------------------------------------------|
D |-5-7--9-10-4-4-4-4-4-4-4-4-4-4-4-4-4-4-9-9-9-9-9-9-9-9-9-9-9-9-9-9-|
A |-3-5--7--8-2-2-2-2-2-2-2-2-2-2-2-2-2-2-7-7-7-7-7-7-7-7-7-7-7-7-7-7-|
E |-------------------------------------------------------------------|

Interlude:
E |-------------------------------------------|
H |-------------------------------------------|
D |-------------------------------------------|
G |-2---4---2---4---2---4---2---4---2---4---2-|
A |-0-0-0-0-0-0-0-0-0-0-0-0-0-0-0-0-0-0-0-0-0-|
E |-------------------------------------------|
00:00 / 00:00
Outros vídeos desta música
Repetir
Outros vídeos desta música
Composição de Christopher Guest / Harry Shearer / Michael McKean / Rob Reiner
65 exibições
    • ½ Tom
    • A
    • Bb
    • B
    • C
    • Db
    • D
    • Eb
    • E
    • F
    • F#
    • G
    • Ab
  • Adicionar à lista

    0 comentários

    Ver todos os comentários

    Conseguiu tocar?

    0 Tocaram 0 Ainda não

    Grave um vídeo tocando Tonight Im Gonna Rock You e nos envie!

    00:00 / 00:00

    Cifra Club Pro

    Aproveite o Cifra Club com benefícios exclusivos e sem anúncios
    Cifra Club Pro
    Aproveite o Cifra Club com benefícios exclusivos e sem anúncios
    OK