Cifra Club

Tonight Im Gonna Rock You

Spinal Tap

Cifra: Versão 2 (violão e guitarra)
tom: Db
Tabbed by: djwalks
Email: *

This is my first ever tab so please don't hurt me...

Verse Riff/ Intro

----------------------------------------------|
----------------------------------------------|
----------------------------------------------|
-6-8-10-11------------------------------------|
-4-6--8-9----8-8-8-8-8------------------------|
------------6--6-6-6-6------------------------|

Bridge

----------------------------------------------|
----------------------------------------------|
----------------------------------------------|
---------------10--10-10----------------------|
--10--10-10----8---8--8-----------------------|
--8---8--8------------------------------------|

Main Riff (Introducing...)

----------------------------------------------|
----------------------------------------------|
-------------------6--------6-----------------|
--8-8--6--3-3--6---6--6--4--6--8-8------------|
--8-8--6--3-3--6---4--6--4--4--8-8------------|
--6-6--4--1-1--4------4--2-----6-6------------|
00:00 / 00:00
Outros vídeos desta música
Repetir
Outros vídeos desta música
Composição de Christopher Guest / Harry Shearer / Michael McKean / Rob Reiner
108 exibições
    • ½ Tom
    • A
    • Bb
    • B
    • C
    • Db
    • D
    • Eb
    • E
    • F
    • F#
    • G
    • Ab
  • Adicionar à lista

    0 comentários

    Ver todos os comentários

    Conseguiu tocar?

    0 Tocaram 0 Ainda não

    Grave um vídeo tocando Tonight Im Gonna Rock You e nos envie!

    Entre para oCifra Club PRO

    Tenha acesso a benefícios exclusivos no App e no Site

    • Chega de anúncios

    • Prioridade de compra em lançamentos

    • Mais recursos no app do Afinador

    • Atendimento Prioritário

    • Descontos nos produtos Cifra Club

    • Ajude a produzir mais conteúdo

    00:00 / 00:00

    Cifra Club Pro

    Aproveite o Cifra Club com benefícios exclusivos e sem anúncios
    Cifra Club Pro
    Aproveite o Cifra Club com benefícios exclusivos e sem anúncios
    OK