Cifra Club

The Story Of Benjamin Darling Part 1

State Radio

Cifra: Principal (violão e guitarra)
tom: B
Year of the Crow
The Story of Benjamin Darling Pt I
Tabbed by Owen Sakovics
Tuning: E A D G B E **For live recordings tune to Eb**
*

 C#m    C#m     G#m     C#m     G#m A   E       B
-4------4-------4-------4-------4---5---7-------7--|
-5------5-------4-------5-------4---5---9-------7--|
-6------6-------4-------6-------4---6---9-------8--|     x1
-6------6-------6-------6-------6---7---9-------9--|
-4------4-------6-------4-------6---7---7-------9--|
----------------4---------------4---5-----------7--|

 C#m    G#m     C#m     G#m B   E
-4------4-------4-------4---7---7--|
-5------4-------5-------4---7---9--|
-6------4-------6-------4---8---9--|     x1
-6------6-------6-------6---9---9--|
-4------6-------4-------6---9---7--|
--------4---------------4---7------|

 B      A       B       A       B       A       A       E       E       B       B
-7------5-------7-------5-------7-------5-------5-------7-------7-------7-------7--|
-7------5-------7-------5-------7-------5-------5-------9-------9-------7-------7--|
-8------6-------8-------6-------8-------6-------6-------9-------9-------8-------8--|     x1
-9------7-------9-------7-------9-------7-------7-------9-------9-------9-------9--|
-9------7-------9-------7-------9-------7-------7-------7-------7-------9-------9--|
-7------5-------7-------5-------7-------5-------5-----------------------7-------7--|

 C#m    G#m     C#m     G#m A   E       B
-4------4-------4-------4---5---7-------7--|
-5------4-------5-------4---5---9-------7--|
-6------4-------6-------4---6---9-------8--|     x1
-6------6-------6-------6---7---9-------9--|
-4------6-------4-------6---7---7-------9--|
--------4---------------4---5-----------7--|

 A      C#m     A       C#m     A       A       A       C#m B   E
-5------4-------5-------4-------5-------5-------5-------4---7---7--|
-5------5-------5-------5-------5-------5-------5-------5---7---9--|
-6------6-------6-------6-------6-------6-------6-------6---8---9--|     x1
-7------6-------7-------6-------7-------7-------7-------6---9---9--|
-7------4-------7-------4-------7-------7-------7-------4---9---7--|
-5--------------5---------------5-------5-------5-----------7------|

 B      A       B       A       B       A       A       E       E       B       B
-7------5-------7-------5-------7-------5-------5-------7-------7-------7-------7--|
-7------5-------7-------5-------7-------5-------5-------9-------9-------7-------7--|
-8------6-------8-------6-------8-------6-------6-------9-------9-------8-------8--|     x1
-9------7-------9-------7-------9-------7-------7-------9-------9-------9-------9--|
-9------7-------9-------7-------9-------7-------7-------7-------7-------9-------9--|
-7------5-------7-------5-------7-------5-------5-----------------------7-------7--|

 C#m    G#m     C#m     G#m A   E       B
-4------4-------4-------4---5---7-------7--|
-5------4-------5-------4---5---9-------7--|
-6------4-------6-------4---6---9-------8--|     x1
-6------6-------6-------6---7---9-------9--|
-4------6-------4-------6---7---7-------9--|
--------4---------------4---5-----------7--|

 C#m    G#m     C#m     G#m B   E
-4------4-------4-------4---7---7--|
-5------4-------5-------4---7---9--|
-6------4-------6-------4---8---9--|     x1
-6------6-------6-------6---9---9--|
-4------6-------4-------6---9---7--|
--------4---------------4---7------|

 B      A       B       A       B       A       A       E       E       B       B
-7------5-------7-------5-------7-------5-------5-------7-------7-------7-------7--|
-7------5-------7-------5-------7-------5-------5-------9-------9-------7-------7--|
-8------6-------8-------6-------8-------6-------6-------9-------9-------8-------8--|     x1
-9------7-------9-------7-------9-------7-------7-------9-------9-------9-------9--|
-9------7-------9-------7-------9-------7-------7-------7-------7-------9-------9--|
-7------5-------7-------5-------7-------5-------5-----------------------7-------7--|

 C#m    B       A       E       C#m     B       A       E       B       C#m
-4------7-------5-------7-------4-------7-------5-------7-------7-------4--|
-5------7-------5-------9-------5-------7-------5-------9-------7-------5--|
-6------8-------6-------9-------6-------8-------6-------9-------8-------6--|     x1
-6------9-------7-------9-------6-------9-------7-------9-------9-------6--|
-4------9-------7-------7-------4-------9-------7-------7-------9-------4--|
--------7-------5-----------------------7-------5---------------7----------|
00:00 / 00:00
Outros vídeos desta música
Repetir
Outros vídeos desta música
Composição de State Radio
150 exibições
    • ½ Tom
    • A
    • Bb
    • B
    • C
    • Db
    • D
    • Eb
    • E
    • F
    • F#
    • G
    • Ab
  • Adicionar à lista

    0 comentários

    Ver todos os comentários

    Conseguiu tocar?

    0 Tocaram 0 Ainda não

    Grave um vídeo tocando The Story Of Benjamin Darling Part 1 e nos envie!

    00:00 / 00:00

    Cifra Club Pro

    Aproveite o Cifra Club com benefícios exclusivos e sem anúncios
    Cifra Club Pro
    Aproveite o Cifra Club com benefícios exclusivos e sem anúncios
    OK