Chained Lightening

Steely Dan

Composição de: Donald Fagen / Walter Becker
tom: D
From uunet!infonode!*!richard Mon Jun  1 11:48:25 PDT 1992
Article: 4389 of *
Newsgroups: *
Path: *!uunet!infonode!*!richard
From: * (Richard Griffiths)
Subject: Tab: Chained Lightning
Message-ID: 
Sender: * (Usenet Administrator)
Reply-To: *
Organization: Intergraph Corporation, Huntsville, AL
Date: Mon, 1 Jun 1992 17:28:40 GMT
Lines: 41

Katy Lied album, and can also be heard on the New York Rock and Soul Review.
The bass licks aren't verbatim, just an idea of what you can do.


e-----------------------------------------------------------------------|
B-----------7--5/-7----7-7\-5-------------7-5/-7----7-7\-5--------------|
G-----------6--4/-6----6-6\-4-------------6-4/-6----6-6\-4--------------|
D-----7-----7--5/-7----7-7\-5--7-----7----7-5/-7----7-7\-5--7------7----|
A-7h9---0-----------0------------7h9---0----------0-----------7h9-------|
E--------------------------------------------------------------------8--|

e---------------------------------------------------------------------------|
B--7--5/-7--8p7-7\-5-------------7--5/-7--8p7-7\-5-------------7--5/-7-8p7--|
G--7--5/-7--9p7-7\-5-------------7--5/-7--9p7-7\-5-------------7--5/-7-9p7--|
D--7--5/-7--9p7-7\-5--7-----7----7--5/-7--9p7-7\-5--7-----7----7--5/-7-9p7--|
A-----------------------7h9---------------------------7h9-------------------|
E------------------------------8-----------------------------8--------------|

e----------|
B-7\-5-----|
G-7\-5-----| repeat until nirvana
D-7\-5--7--|
A----------|
E----------|

/ = slide up
\ = slide down
h = hammer on
p = pulloff

The 3 note pulloff is simply if you use your index finger to bar the DGB
strings at the 5th and 7th frets.  Then your middle, ring and index fingers
are free to do the pulloff.
--
Richard A. Griffiths              ...uunet!ingr!b11!xanth!richard   (UUCP)
Intergraph Corp.                  *          (Internet)
"Something's happening here but you don't know what it is. Do you, Mr. Jones."
Página 1 / 1

Letras e título
Acordes e artista

resetar configurações
OK