Cifra Club

Rikki Dont Lose That Number

Steely Dan

Cifra: Principal (violão e guitarra)
tom: A
Intro: E9

Verso 1:

Dsus2                  Asus2          E
       We hear you're leaving that's okay
Dsus2                    Asus2                   E
  B
       I thought our little wild time had just begun
Dsus2                       Asus2                      E
       I guess you kind of scared yourself you turn and run
F#m7                      Asus2                      C7(9)
       But if you have a change of heart ...

Refrão:

E9
Rikki don't lost that number
                 G
You don't wanna call nobody else
A                   G                   D
  Send it off   in a letter      to yourself
C
Rikki don't lose that number
         Em
Its the only one you own
           C                 Asus2
You might use it if you feel better
             E9
When you get home

Verso 2: (mesmo padrão de acordes do verso 1)

I have a friends in town  he's heard your name
We can go out driving on Slow Hand Row
We could stay inside and play games I don't know
And you could have a change of heart

(Refrão)

Solo: E  Dsus2  Asus2

       E
E|---------------------------------------------------------------------------|
B|--15b17r15p12--15b17~------------------------------------------------------|
G|-----------------------------14b16r14p12--14b16~---------------------------|
D|-----------------------------------------------------11b13r11p9--11b13~----|
A|---------------------------------------------------------------------------|
E|---------------------------------------------------------------------------|

     E
E|------------------------12-15b16--12---------------------------------------|
B|-------------12-----15----------------14b15r14p12--14-12--12b13------------|
G|-x-x--14b16-----14---------------------------------------------------------|
D|----------------------------------------------------------------14~--------|
A|---------------------------------------------------------------------------|
E|---------------------------------------------------------------------------|
      Dsus2             Asus2
E|---------------------15----------------------------------------12----------|
B|--------------------------------------------15----15----15-----------------|
G|-14b16r14----------------14b16(hold-bend)------16----16----16-------16r14--|
D|--------------14~----------------------------------------------------------|
A|---------------------------------------------------------------------------|
E|---------------------------------------------------------------------------|
    G
E|-----------------3------------3--------------------------------------------|
B|-------------6-------------3-----------------------------------------------|
G|----5b7~------------5b7~---------5b7~----3--x------------------------------|
D|-----------------------------------------------3~--------------------------|
A|---------------------------------------------------------------------------|
E|---------------------------------------------------------------------------|

     Fmaj7                             G6
E|-------x--------------------5----------------------------------------------|
B|-----x----/5--5-5-5-8-8-8-8-5-x-x------3--5--------------------------------|
G|--------------5-5-5-5-5-5-5-5-x-x--/4--------4~-------2b4r2p0--------------|
D|---------------------------------------------------------------------------|
A|---------------------------------------------------------------------------|
E|---------------------------------------------------------------------------|

     Fmaj7                   Em                Dsus2
E|-------------------------------------------10/12-x-x-5/7-------------------|
B|--------0----------------------------------10/12-x-x-5/7---x---------------|
G|--2-----0----2p0--2--------------------------------------x---------7-------|
D|-----2---------------0----2------12tr14------------------x----7h9--7--7h9--|
A|---------------------------------------------------------------------------|
E|-----------------------------0---------------------------------------------|

     Asus2                               E
E|-------------------------------------12--12----12----12----12--------------|
B|--x--------------------------------------------12----12--------------------|
G|--x--14-----14------------14-14------13--14----------13----14--------------|
D|-----14h16--14-14-0-------14-16p14-----------------------------------------|
A|--------------------14h16--------------------------------------------------|
E|---------------------------------------------------------------------------|

     Esus4
E|---12----12----12--12------------------------------------------------------|
B|---12----------12----------------------------------------------------------|
G|---------13----------------------------------------------------------------|
D|---------------------------------------------------------------------------|
A|---------------------------------------------------------------------------|
E|---------------------------------------------------------------------------|

Ponte:

Amaj7                         G#m7
    You tell yourself you're not my kind
                                           e|--------------------|
                                           B|--------------------|
                                           G|------4-------2-----|
                                           D|------6p4-----2h4p2-|
                                           A|-----------7--------|
                                           E|--------------------|

Amaj7                   C#m7
    But you don't even know you're mind
                                           e|--------------------|
                                           B|--------------------|
                                           G|---2/42/42--------|
                                           D|---2/42/42--------|
                                           A|--------------------|
                                           E|--------------------|

F#m7                      Asus2           C7(9)
    And you could have a change of heart

(Refrão)

Outro:

E9
Rikki don't lose that number (repeat)
Composição de Donald Fagen / Walter Becker
Colaboração e revisão:
  • Bruna Cardoso
885 exibições
    • ½ Tom
    • A
    • Bb
    • B
    • C
    • Db
    • D
    • Eb
    • E
    • F
    • F#
    • G
    • Ab
  • Adicionar à lista

    0 comentários

    Ver todos os comentários

    Conseguiu tocar?

    0 Tocaram 0 Ainda não

    Grave um vídeo tocando Rikki Dont Lose That Number e nos envie!

    00:00 / 00:00
    Outros vídeos desta música
    Repetir Qualidade Automático
    Outros vídeos desta música
    00:00 / 00:00
    Automático

    Cifra Club Pro

    Aproveite o Cifra Club com benefícios exclusivos e sem anúncios
    Cifra Club Pro
    Aproveite o Cifra Club com benefícios exclusivos e sem anúncios
    OK