Cifra Club

The Devil Went Down To Georgia

Steve Ouimette

Cifra: Principal (violão e guitarra)
exibições 13.825
Tom: G
E|------------------15-17--17-18-17-15-------------|
B|-15--15-17-18--18--------------------18-17-------|
G|-------------------------------------------------|
D|-------------------------------------------------|
A|-------------------------------------------------|
D|-------------------------------------------------|

E|--------------------13-15-17-15-13---------------|
B|-13--13-15-17-15-17----------------17~-----------|
G|-------------------------------------------------|
D|-------------------------------------------------|
A|-------------------------------------------------|
D|-------------------------------------------------|

E|-------------------------------------------------|
B|-10h11p10-8h10p8-6h8p6-5h6p5-3h5p3-1h3p1-----1-3-|
G|-------------------------------------------2-----|
D|-------------------------------------------------|
A|-------------------------------------------------|
E|-------------------------------------------------|
Acordes para:
    Composição: Steve Ouimette Colaboração e revisão:
    • Thyerrí Cruz

    0 comentários

    mostrar mais comentários

    Conseguiu tocar?

    7 tocaram 3 ainda não

    Grave um vídeo tocando The Devil Went Down To Georgia e mande pra gente!

    00:00 / 00:00
    outros vídeos desta música
    repetir qualidade Automático
    Outros vídeos desta música
    00:00 / 00:00
    Automático
    OK