Cifra Club

Aprenda

Signed Sealed Delivered

Stevie Wonder

Tab de baixo: Principal
Tabbed by RTBM
Standard Tuning: E A D G

Intro
G|--------------------------|
D|--------------------1-3---|
A|--8-6-5-3-011------3------|
E|-6-----------3/4~ 1-------|


Verse
G|----------------------------|
D|--33-2----------------------|
A|-------6-5-55-6-7-8-8-7-6-5-|
E|-1--------------------------|


Chorus I
G|-^----------------------------------------|
D|-3------------------------------------1-3-|
A|------0-1--11-1-3----56-8-6-3-1-----3-----|
E|--01-3----1--3----6-8--8-------3/4-1------|


Verse
G|----------------------------|
D|--33-2----------------------|
A|-------6-5-55-6-7-8-8-7-6-5-|
E|-1--------------------------|


Chorus II
G|-^-------------------------------------------------------------|
D|-3--------------------------------3------------------------3---|
A|------0-1--11-1-3----56-8-8-5-5-8---------23--/8-------3-66----|
E|--01-3----1--3----6-8--8-----8-----01-3-56---1---3456-6-----1--|

Chorus II
G|------------------------------------------------------------------------|
D|-----------3------------3-----------3----------------1-3----------------|
A|-------3-66---------3-66--/8----3-66-8-6-5-3-11-----3---8-6-5-3-11------|
E|-3456-6-----1-3456-6-----1--3456---------------3/4-1--------------3/4-1-|


Verse
G|----------------------------|
D|--33-2----------------------|
A|-------6-5-55-6-7-8-8-7-6-5-|
E|-1--------------------------|


Chorus I
G|-^----------------------------------------|
D|-3------------------------------------1-3-|
A|------0-1--11-1-3----56-8-6-3-1-----3-----|
E|--01-3----1--3----6-8--8-------3/4-1------|


Verse
G|----------------------------|
D|--33-2----------------------|
A|-------6-5-55-6-7-8-8-7-6-5-|
E|-1--------------------------|

Chorus II
G|-^-------------------------------------------------------------|
D|-3--------------------------------3------------------------3---|
A|------0-1--11-1-3----56-8-8-5-5-8---------23--/8-------3-66----|
E|--01-3----1--3----6-8--8-----8-----01-3-56---1---3456-6-----1--|

Chorus II
G|------------------------------------------------------------------------|
D|-----------3------------3-----------3----------------1-3----------------|
A|-------3-66---------3-66--/8----3-66-8-6-5-3-11-----3---8-6-5-3-11------|
E|-3456-6-----1-3456-6-----1--3456---------------3/4-1--------------3/4-1-|


Chorus II
G|-----------------------------------------------------------------|
D|-----------3------------3-----------3------------3------------3--|
A|-------3-66---------3-66--/8----3-66---------3-66---------3-66---|
E|-3456-6-----1-3456-6-----1--3456-----1-3456-6-----1-3456-6-----1-|


Chorus II combination, play it the 3dr time each time
G|-----------------------|
D|---------3-33----------|
A|-------------6-3-1h3---|
E|-3456-6-6-----------1--|
Composição de Lee Garrett / Lula Mae Hardaway / Stevie Wonder / Syreeta Wright
2.030 exibições

0 comentários

Mostrar mais comentários

Conseguiu tocar?

0 Tocaram 1 Ainda não

Grave um vídeo tocando Signed Sealed Delivered e mande pra gente!

00:00 / 00:00
outros vídeos desta música
repetir qualidade Automático
Outros vídeos desta música
00:00 / 00:00
Automático
OK