Cifra Club

Aprenda

Sir Duke

Stevie Wonder

Tab de baixo: Principal
[Introdução]

Parte 1 de 1
G|----------------------------------------------|
D|-16p14-16-------------------------------------|
A|-----------9-7-6------------------------------|
E|-----------------9----------------------------|

[Primeira parte]

Music is a World Within itself...

Parte 1 de 2
G|----------------------------------------------|
D|-----x-9------------x-6------------x-5--------|
A|---9-----x-9------6-----x-6------5-----x-5----|
E|-7-----------7--4-----------4--3-----------3--|

G|----------------------------------------------|
D|-----x-4-2-1----------------------------------|
A|---4---------4--------------------------------|
E|-2--------------------------------------------|

Parte 2 de 3
G|-----x-4--------------------------------------|
D|---4-----x-4--------x-6------------x-5--------|
A|-2-----------2----6-----x-6------5-----x-5----|
E|----------------4-----------4--3-----------3--|

G|----------5-----------------------------------|
D|-----4-3--------------------------------------|
A|---4------------------------------------------|
E|-2--------------------------------------------|

Parte 3 de 3
G|----------------------------------------------|
D|-------------------------------14-------------|
A|-7-7-6-6-5-5-4-4-5-5-6-6-7--7/----------------|
E|----------------------------------------------|

G|----------------------------------------------|
D|----------------------------------------------|
A|-7-7-6-6-5-5-4-4--5-6-7-8-9-------------------|
E|----------------------------------------------|

[Refrão ]

They can feel it all over …

Parte 1 de 2
G|-----x-4------------5----------4--------------|
D|---4-----x-4----3-6---x-6-3--2---2--2-1-------|
A|-2-----------2--------------------------------|
E|----------------------------------------------|

G|----------------------------------------------|
D|--------2-3-4-4--4----------------------------|
A|-4-4--4---------------------------------------|
E|----------------------------------------------|

Parte 2 de 2
G|-----x-4------------5----------4--------------|
D|---4-----x-4----3-6---x-6-3--2---2--2-1-------|
A|-2-----------2--------------------------------|
E|----------------------------------------------|

G|----------------------------------------------|
D|--------2-3-4-4-------------------------------|
A|-4-4--4---------------------------------------|
E|----------------2/----------------------------|

[Instrumental 2]

Parte 1 de 5
G|--------------------------------------------16|
D|--------------------------------------16-18---|
A|--------------------------14-16-17-18---------|
E|-7-x-11-9-x-16-14-x-14-16---------------------|

G|-18-19-20-------------------------------------|
D|----------------------------------------------|
A|----------------------------------------------|
E|----------------------------------------------|

Parte 2 de 5
G|----------------------------------------------|
D|--16h18------14h16----------------------------|
A|--------18---------16-------------------------|
E|----------------------------------------------|

Parte 3 de 5
G|----------------------------------------------|
D|-11/13--11-9------11-9-----9------------------|
A|-------------11-9------11---------------------|
E|----------------------------------------------|

Parte 4 de 5
G|-6h8--6-4--6-4---4----------------------------|
D|---------------6---6-4-6--4---4---------------|
A|----------------------------6---6-4-6-4-2-4-2-|
E|----------------------------------------------|

G|----------------------------------------------|
D|----------------------------------------------|
A|----------------------------------------------|
E|--4-2-----------------------------------------|

Parte 5 de 5
G|---------------4---4--------------------------|
D|-----------4-6---6---6-4-6-4---4--------------|
A|-----2-4-6-------------------6----------------|
E|-2-4------------------------------2-2---------|

[Segunda parte]

Music knows it is and always will…

Parte 1 de 3
G|----------------------------------------------|
D|-----x-9------------x-6------------x-5--------|
A|---9-----x-9------6-----x-6------5-----x-5----|
E|-7-----------7--4-----------4--3-----------3--|

G|----------------------------------------------|
D|-----x-4-2-1----------------------------------|
A|---4---------4--------------------------------|
E|-2--------------------------------------------|

Parte 2 de 3
G|-----x-4--------------------------------------|
D|---4-----x-4--------x-6------------x-5--------|
A|-2-----------2----6-----x-6------5-----x-5----|
E|----------------4-----------4--3-----------3--|

G|----------5-----------------------------------|
D|-----4-3--------------------------------------|
A|---4------------------------------------------|
E|-2--------------------------------------------|

Parte 3 de 3
G|----------------------------------------------|
D|-------------------------------14-------------|
A|-7-7-6-6-5-5-4-4-5-5-6-6-7--7/----------------|
E|----------------------------------------------|

G|----------------------------------------------|
D|----------------------------------------------|
A|-7-7-6-6-5-5-4-4--5-6-7-8-9-------------------|
E|----------------------------------------------|

[Refrão 2]

They can feel it all over …

Parte 1 de 2( Tocar 3x )
G|-----x-4------------5-8---4-------------------|
D|---4-----x-4----3-6-----2------4-3-2--1-------|
A|-2-----------2--------------2-----------------|
E|----------------------------------------------|

G|----------------------------------------------|
D|--------2-3-4-4--4----------------------------|
A|-4-4--4---------------------------------------|
E|----------------------------------------------|

Parte 2 de 2
G|-----x-4-3-4-3-----------5-8---4--------------|
D|---4-----------4----3--6-----2-----4-3-2--1---|
A|-2---------------2---------------2------------|
E|----------------------------------------------|
 
G|----------------------------------------------|
D|--------2-3-4-4-------------------------------|
A|-4-4--4---------------------------------------|
E|----------------2/----------------------------|

Parte 1 de 5
G|--------------------------------------------16|
D|--------------------------------------16-18---|
A|--------------------------14-16-17-18---------|
E|-7-x-11-9-x-16-14-x-14-16---------------------|

G|-18-19-20-------------------------------------|
D|----------------------------------------------|
A|----------------------------------------------|
E|----------------------------------------------|

Parte 2 de 5
G|----------------------------------------------|
D|--16h18------14h16----------------------------|
A|--------18---------16-------------------------|
E|----------------------------------------------|

Parte 3 de 5
G|----------------------------------------------|
D|-11/13--11-9------11-9-----9------------------|
A|-------------11-9------11---------------------|
E|----------------------------------------------|

Parte 4 de 5
G|-6h8--6-4--6-4---4----------------------------|
D|---------------6---6-4-6--4---4---------------|
A|----------------------------6---6-4-6-4-2-4-2-|
E|----------------------------------------------|

G|----------------------------------------------|
D|----------------------------------------------|
A|----------------------------------------------|
E|--4-2-----------------------------------------|

Parte 5 de 5
G|---------------4---4--------------------------|
D|-----------4-6---6---6-4-6-4---4--------------|
A|-----2-4-6-------------------6----------------|
E|-2-4------------------------------2-2---------|

[Refrão 3]

They can feel it all over …

Parte 1 de 2( Tocar 4x )
G|-----x-4-3-4-3---------------5---5-8-5--------|
D|---4-----------4----3--x-6-6---6-------6-3----|
A|-2---------------2----------------------------|
E|----------------------------------------------|
 
G|---4------------------------------------------|
D|-2------4-3-2--1------1---2-3-4-4-------------|
A|-----2------------4-4---4---------4-4---1-----|
E|--------------------------------------2-------|

Parte 2 de 2
G|-----x-4------------5-8---4-------------------|
D|---4-----x-4----3-6-----2------4-3-2--1-------|
A|-2-----------2--------------2-----------------|
E|----------------------------------------------|

G|----------------------------------------------|
D|-----1---2-3-4-4------------------------------|
A|-4-4---4---------4-4----1---------------------|
E|----------------------2-----------------------|

[Instrumental 3]

Parte 1 de 5
G|--------------------------------------------16|
D|--------------------------------------16-18---|
A|--------------------------14-16-17-18---------|
E|-7-x-11-9-x-16-14-x-14-16---------------------|

G|-18-19-20-------------------------------------|
D|----------------------------------------------|
A|----------------------------------------------|
E|----------------------------------------------|

Parte 2 de 5
G|----------------------------------------------|
D|--16h18------14h16----------------------------|
A|--------18---------16-------------------------|
E|----------------------------------------------|

Parte 3 de 5
G|----------------------------------------------|
D|-11/13--11-9------11-9-----9------------------|
A|-------------11-9------11---------------------|
E|----------------------------------------------|

Parte 4 de 5
G|-6h8--6-4--6-4---4----------------------------|
D|---------------6---6-4-6--4---4---------------|
A|----------------------------6---6-4-6-4-2-4-2-|
E|----------------------------------------------|

G|----------------------------------------------|
D|----------------------------------------------|
A|----------------------------------------------|
E|--4-2-----------------------------------------|

Parte 5 de 5
G|---------------4---4--------------------------|
D|-----------4-6---6---6-4-6-4---4--------------|
A|-----2-4-6-------------------6----------------|
E|-2-4------------------------------2-2---------|
Composição de Stevie Wonder
Colaboração e revisão:
  • Reginaldo Costa
4.211 exibições

0 comentários

Mostrar mais comentários

Conseguiu tocar?

0 Tocaram 0 Ainda não

Grave um vídeo tocando Sir Duke e mande pra gente!

00:00 / 00:00
outros vídeos desta música
repetir qualidade Automático
Outros vídeos desta música
00:00 / 00:00
Automático
Capítulos
  • Tocando a Música
  • Apresentação / Equipamentos
  • Tocando Intro Lento
  • Tocando Primeira Parte Lento
  • Tocando Refrão Lento
  • Dicas da música
  • Ensinando Parte Instrumental
  • Ensinando Refrão 2
  • Ensinando Refrão 3
  • Encerramento

Cifra Club Pro

Aproveite o Cifra Club com benefícios exclusivos e sem anúncios
7 dias grátis
Cifra Club Pro
Aproveite o Cifra Club com benefícios exclusivos e sem anúncios
7 dias grátis
OK