Cifra Club

A Love Letter From Me To You

Sticky Fingers

Cifra: Principal (violão e guitarra)
tom: D
INTRO/VERSO 

E|--2----4----------2---0--------------------------------------------| 
B|--3----5----------3---2--------------------------------------------| 
G|--2----4-----x3---2---2--------------------------------------------|  
D|--4----6----------4---2--------------------------------------------| 
A|--2----4----------2---0--------------------------------------------| 
E|--x----x----------x---x--------------------------------------------| 
   Bm7  C#m7       Bm7   A


LICK  

E|--4h7p4---------------------------------------------| 
B|----------------------------------------------------| 
G|--------6-------------------------------------------| 
D|----------------------------------------------------| 
A|----------------------------------------------------| 
E|----------------------------------------------------| 

Conexão

E|--9-----7----5----4----2-------2-----4---4s5------| 
B|--10----9----7----5----3-------2-----6---6s7------| 
G|--9-----9----7----4----2-------2-----6---6s7------| 
D|--11----9----7----5----4-------2-----6---6s7------| 
A|--9-----7----5----4----2-------4-----4---4s5------| 
E|--x-----x----x----x----x-------2-----x---xsx------| 
   F#m7   Em   Dm  C#m7 Em7     F#m7
   


RIFF DO SEGUNDO VIOLÃO

E|-------------------------------------------------------------------------| 
B|---5-h-7-5-----------5-h-7-5-5-s-7-5--5-h-7------------------------------| 
G|------------4-4-h-6-------------------------4-4-h-6--4-h-6-4--4-s-2------| 
D|-------------------------------------------------------------------------| 
A|-------------------------------------------------------------------------| 
E|-------------------------------------------------------------------------| 
00:00 / 00:00
Outros vídeos desta música
Repetir
Outros vídeos desta música
Compositor não encontrado.
Colaboração e revisão:
  • Eric Vinicius
11.750 exibições
    • ½ Tom
    • A
    • Bb
    • B
    • C
    • Db
    • D
    • Eb
    • E
    • F
    • F#
    • G
    • Ab
  • Adicionar à lista

    0 comentários

    Ver todos os comentários

    Entre para oCifra Club PRO

    Tenha acesso a benefícios exclusivos no App e no Site

    • Chega de anúncios

    • Prioridade de compra em lançamentos

    • Mais recursos no app do Afinador

    • Atendimento Prioritário

    • Descontos nos produtos Cifra Club

    • Ajude a produzir mais conteúdo

    00:00 / 00:00

    Cifra Club Pro

    Aproveite o Cifra Club com benefícios exclusivos e sem anúncios
    Cifra Club Pro
    Aproveite o Cifra Club com benefícios exclusivos e sem anúncios
    OK