Begging You

The Stone Roses

Composição de: Ian Brown / John Squire
tom: E
Album: Second Coming (1994)
Tunning: standard
Tabbed By: INDIE NATION

Words and Music by Ian Brown and John squier

 - Heres the main riff im working on the rest
but its not easy to tab all the guitar parts in this Class song.

Main Riff:

e ----------------------------------|
B ----------------------------------|
G ----------------------------------|
D --------7-7-9-9--7-7-7-7---7-9-9--|
A --7-8-9------------------9--------|
E ----------------------------------|

e ---------------------------------|
B ---------------------------------|
G ----------------7-7-7-7----------|
D --------7-7-9-9-----------7-9-9--|
A --7-8-9-----------------9--------|
E ---------------------------------|
Página 1 / 1

Letras e título
Acordes e artista

resetar configurações
OK