Fools Gold

The Stone Roses

Composição de: Graham Parker / Ian Brown / John Squire
tom: G
Intro
e|----------|
B|----------|
G|----------|
D|----------|
A|----------|
E|--3-3-4-5-|

Riff 1
e|-----------------------------------------|
B|-----------------------------------------|
G|-----------------------------------------|
D|--7--5/4/5/4/5---------------------------|
A|----------------5/4/5/4/5-5--3-3---------|
E|--------------------------------3-3-4-5--|

Riff 2
e|----------------------------------------------------------------------|
B|----------------------------------------------------------------------|
G|----------------------------------------------------------------------|
D|----------7-5--------------5-2----------------------------------------|
A|--------------7-5--3--3--3-----5-3---------------3-5------------3-53--|
E|--5--5--5---------------------------3--3--3--3-5------5--5--5--5-5--5-|

Riff 3
e|---------------|
B|---------------|
G|---------------|
D|---------------|
A|----3-2-2------|
E|--5------3-3-4-|

e|-------------|
B|-------------|
G|-------------|
D|-------------|
A|-3-----------|
E|---33-3-4-5--|

Riff 3 (simplificado)

e|--------------|
B|--------------|
G|--------------|
D|--------------|
A|---3-2--------|
E|-5-----33-3-4-|
Página 1 / 1

Letras e título
Acordes e artista

resetar configurações
OK