Made Of Stone Intro

The Stone Roses

tom: B (forma dos acordes no tom de A ) Capotraste na 2ª casa
Tabbed by: Beaney (thanks to Lee Eugene T for chords and lyrics)
Email: B*

Tuning: Standard Capo 2 Fret
Notes: Intro and Outro both basically the same, medium gain   Humbucker's (Gretch or 
Chorus and Lite flanger (loads at the end of the solo).


e|-------10-----10-----10-----9------9------9-------8-------8------8-|
B|----------8------8------------8------8--------------8-------8------|
G|-------------------9-------------------9-----------------------9---|
D|----2-------2------------2------2------------2---------2-----------|
A|-------------------------------------------------------------------|
E|-------------------------------------------------------------------|

e|-------7-------7---------|
B|---------8-------8-8h9p8-|
G|-------------------------|
D|----2--------2-----------|
A|-------------------------|
E|-------------------------|

e|-------10-----10-----10-----9------9------9-------8-------8------8-|
B|----------8------8------------8------8--------------8-------8------|
G|-------------------9-------------------9-----------------------9---|
D|----2-------2------------2------2------------2---------2-----------|
A|-------------------------------------------------------------------|
E|-------------------------------------------------------------------|

e|------------7----|
B|----------8------|
G|--------9--------|
D|----2------------|
A|-----------------|
E|-----------------|

Right there's the intro, the outro is the same just slow down at the end to fade!

As with most roses tunes there's lots of overdubbed guitars but live on the DVD it's 
with capo, however I think John Cheekily switches during the bass fill's. However mess with it.

For the main body use the previous tab for lyrics/chords/arrangement. The key is to use 
tech's for effect ie strum/open chords sometimes and then arpeggio to pick out the vocal 
and for effect
Página 1 / 1

Letras e título
Acordes e artista

resetar configurações
OK