Cifra Club

Sally Cinammon

The Stone Roses

Tab de baixo: Principal
SALLY CINAMMON BASS TAB

BASSIST: MANI
TRANSCRIBED BY: ANDREW KEATING

GUITAR INTO (TRANSCRIBED FOR BASS):
G|--7--5-4—-5-4-5-4-5-4----|
D|5----------------------7-|
A|-------------------------|
E|-------------------------|

BASS INTRO:
G|----------|-------------|
D|----------|-------------|
A|-5~-------|-3~------3-5-|
E|----------|-------------|

VERSE ONE:
G|---------------|------2-4-2--|-----------------|----------------|
D|-5-5-5-5-5-5-5-|5-5-5--------|-----------------|----------------|
A|---------------|-------------|-3-3-3-3-3-3-3-3-|3-3—3-3-3-3-3-3-| x4
E|---------------|-------------|-----------------|----------------|

CHORUS:
G|----------|----------|
D|----------|----------|
A|-5~-------|-3~-------|
E|----------|----------|

G|-----------------|----5-4-2--|-----------------|----5-4-2--|
D|-5-5-5-5-5-5-5---|-----------|-5-5-5-5-5-5-5---|-----------|
A|---------------3-|-----------|---------------3-|-----------|
E|-----------------|-----------|-----------------|-----------|

VERSE TWO:
G|---------------|------2-4-2--|-----------------|----------------|
D|-5-5-5-5-5-5-5-|5-5-5--------|-----------------|----------------|
A|---------------|-------------|-3-3-3-3-3-3-3-3-|3-3—3-3-3-3-3-3-| x4
E|---------------|-------------|-----------------|----------------|

CHORUS:
G|----------|----------|
D|----------|----------|
A|-5~-------|-3~-------|
E|----------|----------|

G|-----------------|----5-4-2--|-----------------|----5-4-2--|
D|-5-5-5-5-5-5-5---|-----------|-5-5-5-5-5-5-5---|-----------|
A|---------------3-|-----------|---------------3-|-----------|
E|-----------------|-----------|-----------------|-----------|

GUITAR SOLO:
G|-----------------|----5-4-2--|-----------------|----5-4-2--|
D|-----------------|-----------|-----------------|-----------|
A|---------------3-|-----------|---------------3-|-----------| x2
E|-3-3-3-3-3-3-3---|-----------|-3-3-3-3-3-3-3---|-----------|

BREAK:
G|-----------------|-----------------|
D|-----------------|-----------------|
A|-5-5-5-5-5-5-5-5-|-5-5-5-5-5-5-5-5-|
E|-----------------|-----------------|
G|-----------------|-----------------|
D|-----------------|-----------------|
A|-3-3-3-3-3-3-3-3-|-3-3-3-3-3-3-3-3-|
E|-----------------|-----------------|

G|-----------------|-----------------|
D|-----------------|-----------------|
A|-5-5-5-5-5-5-5-5-|-5-5-5-5-5-5-5-5-|
E|-----------------|-----------------|

G|-----------------|-----------------|
D|-----------------|-----------------|
A|3~---------------|-----------------|
E|-----------------|-----------------|

REST THREE BARS AND THEN PLAY:

G|----5-4-2--|
D|-----------|
A|-----------|
E|-----------|

VERSE THREE:
G|-----------------|----5-4-2--|-----------------|----5-4-2--|
D|-5-5-5-5-5-5-5---|-----------|-5-5-5-5-5-5-5---|-----------|
A|---------------3-|-----------|---------------3-|-----------| x2
E|-----------------|-----------|-----------------|-----------|

CHORUS:
G|----------|----------|
D|----------|----------|
A|-5~-------|-3~-------|
E|----------|----------|

G|-----------------|----5-4-2--|-----------------|----5-4-2--|
D|-5-5-5-5-5-5-5---|-----------|-5-5-5-5-5-5-5---|-----------|
A|---------------3-|-----------|---------------3-|-----------| x4
E|-----------------|-----------|-----------------|-----------|
Composição de Ian Brown / John Squire
296 exibições

0 comentários

Ver todos os comentários

Conseguiu tocar?

0 Tocaram 0 Ainda não

Grave um vídeo tocando Sally Cinammon e nos envie!

00:00 / 00:00
Outros vídeos desta música
Repetir Qualidade Automático
Outros vídeos desta música
00:00 / 00:00
Automático

Cifra Club Pro

Aproveite o Cifra Club com benefícios exclusivos e sem anúncios
Cifra Club Pro
Aproveite o Cifra Club com benefícios exclusivos e sem anúncios
OK