Cifra Club

Do Me a Favor

Stone Sour

Cifra: Principal
exibições 2.906
Tom: F (com acordes na forma de G) Afinação: D G C F A D
Guitar 1 Rhythmic (D# A# D# G# C  F  )
Guitar 2 Lead     (D# A# D# G# C  F  )


Guitar 1

                 |--3--|                               |--3--|
              E  E  E  E  S S E  E  Q               E  E  E  E  S S E  E  Q
F ||-------|--------0--1--0-L-L----------|-------|--------0--1--0-L-L----------|
C ||-------|-----1--------L-1-L----------|-------|-----1--------L-1-L----------|
G#||-------|--2-------------L-2--L-------|-------|--2-------------L-2--L-------|
D#||-------|-----------------------------|-------|-----------------------------|
A#||-------|-----------------------------|-------|-----------------------------|
D#||-------|-----------------------------|-------|-----------------------------|

             |--3--|                       |--3--|
          E  E  E  E  S S E  E  Q       E  E  E  E  S S E  E  Q
-------|--------0--1--0-L-L----------|--------0--1--0-L-L----------|
-------|-----1--------L-1-L----------|-----1--------L-1-L----------|
-------|--2-------------L-2--L-------|--2-------------L-2--L-------|
-------|-----------------------------|-----------------------------|
-------|-----------------------------|-----------------------------|
-------|-----------------------------|-----------------------------|

     |--3--|                       |--3--|
  E  E  E  E  S S E  E  Q       E  E  E  E  S S E  E  Q
--------0--1--0-L-L----------|--------0--1--0-L-L----------|
-----1--------L-1-L----------|-----1--------L-1-L----------|
--2-------------L-2--L-------|--2-------------L-2--L-------|
-----------------------------|-----------------------------|
-----------------------------|-----------------------------|
-----------------------------|-----------------------------|

     |--3--|                       |--3--|
  E  E  E  E  S S E  E  Q       E  E  E  E  S S E  E  Q
--------0--1--0-L-L----------|--------0--1--0-L-L----------|
-----1--------L-1-L----------|-----1--------L-1-L----------|
--2-------------L-2--L-------|--2-------------L-2--L-------|
-----------------------------|-----------------------------|
-----------------------------|-----------------------------|
-----------------------------|-----------------------------|


                                             PM      PM      PM      PM
     |--3--|                            |--3-|  |--3-|  |--3-|  |--3-|
     E  E  E  E  S S E  E  Q               Q    E  Q    E  Q    E  Q    E
--------0--1--0-L-L----------|-------|----------------------------------|
-----1--------L-1-L----------|-------|----------------------------------|
--2-------------L-2--L-------|-------|--7-------7-------7-------7-------|
-----------------------------|-------|--7----0--7----0--7----0--7----0--|
-----------------------------|-------|--5----0--5----0--5----0--5----0--|
-----------------------------|-------|-------0-------0-------0-------0--|


       PM      PM      PM                 PM      PM      PM      PM
  |--3-|  |--3-|  |--3-|  |--3-|     |--3-|  |--3-|  |--3-|  |--3-|
     Q    E  Q    E  Q    E  Q    E     Q    E  Q    E  Q    E  Q    E
----------------------------------|----------------------------------|
----------------------------------|----------------------------------|
--7-------7-------7-------5----7--|--L-------7-------7-------7-------|
--7----0--7----0--7----0--5----7--|--L----0--7----0--7----0--7----0--|
--5----0--5----0--5----0--3----5--|--L----0--5----0--5----0--5----0--|
-------0-------0-------0----------|-------0-------0-------0-------0--|


       PM      PM      PM                 PM      PM      PM      PM
  |--3-|  |--3-|  |--3-|  |--3-|     |--3-|  |--3-|  |--3-|  |--3-|
     Q    E  Q    E  Q    E  Q    E     Q    E  Q    E  Q    E  Q    E
----------------------------------|----------------------------------|
----------------------------------|----------------------------------|
--7-------7-------7-------5----7--|--L-------7-------7-------7-------|
--7----0--7----0--7----0--5----7--|--L----0--7----0--7----0--7----0--|
--5----0--5----0--5----0--3----5--|--L----0--5----0--5----0--5----0--|
-------0-------0-------0----------|-------0-------0-------0-------0--|


       PM      PM      PM                 PM      PM      PM      PM
  |--3-|  |--3-|  |--3-|  |--3-|     |--3-|  |--3-|  |--3-|  |--3-|
     Q    E  Q    E  Q    E  Q    E     Q    E  Q    E  Q    E  Q    E
----------------------------------|----------------------------------|
----------------------------------|----------------------------------|
--7-------7-------7-------5----7--|--L-------7-------7-------7-------|
--7----0--7----0--7----0--5----7--|--L----0--7----0--7----0--7----0--|
--5----0--5----0--5----0--3----5--|--L----0--5----0--5----0--5----0--|
-------0-------0-------0----------|-------0-------0-------0-------0--|


       PM      PM      PM                    PM      PM      PM
  |--3-|  |--3-|  |--3-|  |--|  |3|     |--3-|  |--3-|  |--3-|  |3|  |3|
     Q    E  Q    E  Q    E  S  E  S E     Q    E  Q    E  Q    E  S E  S E
-------------------------------------|------------------------------------|
-------------------------------------|------------------------------------|
-------------------------------------|------------------------------------|
--8----0--8----0--8----0--8-10--L-7--|--L----0--7----0--7----0--7-8--L-5--|
--8----0--8----0--8----0--8-10--L-7--|--L----0--7----0--7----0--7-8--L-5--|
--8----0--8----0--8----0--8-10--L-7--|--L----0--7----0--7----0--7-8--L-5--|

                      |-----------3-----------|
  W                   W                Q      Q
-------------------|--------------------------------|
-------------------|--------------------------------|
-------------------|--------------------------------|
--L----------------|--L----------------L----/12----|
--L----------------|--L----------------L----/12----|
--L----------------|--L----------------L----/12----|


  PM PM PM PM PM PM PM PM PM PM PM PM    PM PM PM PM PM PM PM PM PM PM PM PM
  |--3--|  |--3--|  |--3--|  |--3--|     |--3--|  |--3--|  |--3--|  |--3--|
     E  E  E  E  E  E  E  E  E  E  E  E     E  E  E  E  E  E  E  E  E  E  E  E
--------------------------------------|--------------------------------------|
--------------------------------------|--------------------------------------|
--------------------------------------|--------------------------------------|
--------------------------------------|--------------------------------------|
--------------------------------------|--------------------------------------|
--0--0--0--0--0--0--0--0--0--0--0--0--|--0--0--0--0--0--0--0--0--0--0--0--0--|


  PM PM PM PM PM PM PM PM PM PM PM PM    PM PM PM PM PM PM PM PM PM
  |--3--|  |--3--|  |--3--|  |--3--|     |--3--|  |--3--|  |--3--|  |-3|
  E  E  E  E  E  E  E  E  E  E  E  E     E  E  E  E  E  E  E  E  E  E  Q
--------------------------------------|--------------------------------------|
--------------------------------------|--------------------------------------|
--------------------------------------|--------------------------------------|
--------------------------------------|--------------------------------------|
--------------------------------------|--------------------------------------|
--0--0--0--0--0--0--0--0--0--0--0--0--|--6--6--6--5--5--5--3--3--3--5--L----|


  PM PM PM PM PM PM PM PM PM PM PM PM    PM PM PM PM PM PM PM PM PM PM PM PM
  |--3--|  |--3--|  |--3--|  |--3--|     |--3--|  |--3--|  |--3--|  |--3--|
     E  E  E  E  E  E  E  E  E  E  E  E     E  E  E  E  E  E  E  E  E  E  E  E
--------------------------------------|--------------------------------------|
--------------------------------------|--------------------------------------|
--------------------------------------|--------------------------------------|
--------------------------------------|--------------------------------------|
--------------------------------------|--------------------------------------|
--0--0--0--0--0--0--0--0--0--0--0--0--|--0--0--0--0--0--0--0--0--0--0--0--0--|


  PM PM PM PM PM PM PM PM PM PM PM PM    PM PM PM PM PM PM PM PM PM
  |--3--|  |--3--|  |--3--|  |--3--|     |--3--|  |--3--|  |--3--|  |-3|
  E  E  E  E  E  E  E  E  E  E  E  E     E  E  E  E  E  E  E  E  E  E  Q
--------------------------------------|--------------------------------------|
--------------------------------------|--------------------------------------|
--------------------------------------|--------------------------------------|
--------------------------------------|--------------------------------------|
--------------------------------------|--------------------------------------|
--0--0--0--0--0--0--0--0--0--0--0--0--|--6--6--6--5--5--5--3--3--3--5--L----|


  PM PM PM PM PM PM PM PM PM PM PM PM    PM PM PM PM PM PM PM PM PM PM PM PM
  |--3--|  |--3--|  |--3--|  |--3--|     |--3--|  |--3--|  |--3--|  |--3--|
     E  E  E  E  E  E  E  E  E  E  E  E     E  E  E  E  E  E  E  E  E  E  E  E
--------------------------------------|--------------------------------------|
--------------------------------------|--------------------------------------|
--------------------------------------|--------------------------------------|
--------------------------------------|--------------------------------------|
--------------------------------------|--------------------------------------|
--0--0--0--0--0--0--0--0--0--0--0--0--|--2--2--2--2--2--2--2--2--2--2--2--2--|


  PM PM PM PM PM PM PM PM PM PM PM PM    PM PM PM PM PM PM PM PM PM PM PM PM
  |--3--|  |--3--|  |--3--|  |--3--|     |--3--|  |--3--|  |--3--|  |--3--|
     E  E  E  E  E  E  E  E  E  E  E  E     E  E  E  E  E  E  E  E  E  E  E  E
--------------------------------------|--------------------------------------|
--------------------------------------|--------------------------------------|
--------------------------------------|--------------------------------------|
--------------------------------------|--------------------------------------|
--------------------------------------|--------------------------------------|
--3--3--3--3--3--3--3--3--3--3--3--3--|--5--5--5--5--5--5--6--6--6--6--6--6--|


  PM PM PM PM PM PM PM PM PM PM PM PM    PM PM PM PM PM PM PM PM PM PM PM PM
  |--3--|  |--3--|  |--3--|  |--3--|     |--3--|  |--3--|  |--3--|  |--3--|
     E  E  E  E  E  E  E  E  E  E  E  E     E  E  E  E  E  E  E  E  E  E  E  E
--------------------------------------|--------------------------------------|
--------------------------------------|--------------------------------------|
--------------------------------------|--------------------------------------|
--------------------------------------|--------------------------------------|
--------------------------------------|--------------------------------------|
--0--0--0--0--0--0--0--0--0--0--0--0--|--2--2--2--2--2--2--2--2--2--2--2--2--|


  PM PM PM PM PM PM PM PM PM PM PM PM
  |--3--|  |--3--|  |--3--|  |--3--|     |--3--|  |--3--|  |--3--|  |--3--|
     E  E  E  E  E  E  E  E  E  E  E  E     E  E  E  E  E  E  E  E  E  E  E  E
--------------------------------------|--------------------------------------|
--------------------------------------|--------------------------------------|
--------------------------------------|--5--5--5--5--5--5--5--5--5--5--5--5--|
--------------------------------------|--5--5--5--5--5--5--5--5--5--5--5--5--|
--------------------------------------|--3--3--3--3--3--3--3--3--3--3--3--3--|
--3--3--3--3--3--3--3--3--3--3--3--3--|--------------------------------------|


       PM                                  PM
  |--3-|  |--3--|         |--3--|     |--3-|  |--3--|         |--3-|
     Q    E  Q     H         Q     E     Q    E  Q     H         Q    E
-----------------------------------|----------------------------------|
-----------------------------------|----------------------------------|
--7-------7----10--------10-----L--|--7-------7----10--------10----L--|
--7----0--7----10--------10-----L--|--7----0--7----10--------10-------|
--5----0--5-----8---------8-----L--|--5----0--5-----8---------8----L--|
-------0---------------------------|-------0--------------------------|


       PM
  |--3-|  |--3--|         |--3-|     |--3-|  |--3-|  |--3-|  |--3-|
     Q    E  Q     H         Q    E     Q    E  Q    E  Q    E  Q    E
----------------------------------|----------------------------------|
----------------------------------|----------------------------------|
--7-------7----10--------10----L--|----------------------------------|
--7----0--7----10--------10-------|--8-------8-------8-------8-------|
--5----0--5-----8---------8----L--|--8-------8-------8-------8-------|
-------0--------------------------|--8-------8-------8-------8-------|


       PM                                  PM
  |--3-|  |--3--|         |--3--|     |--3-|  |--3--|         |--3-|
     Q    E  Q     H         Q     E     Q    E  Q     H         Q    E
-----------------------------------|----------------------------------|
-----------------------------------|----------------------------------|
--7-------7----10--------10-----L--|--7-------7----10--------10----L--|
--7----0--7----10--------10-----L--|--7----0--7----10--------10-------|
--5----0--5-----8---------8-----L--|--5----0--5-----8---------8----L--|
-------0---------------------------|-------0--------------------------|


       PM                                 PM      PM      PM
  |--3-|  |--3--|         |--3-|     |--3-|  |--3-|  |--3-|  |--|  |3|
     Q    E  Q     H         Q    E     Q    E  Q    E  Q    E  S  E  S E
----------------------------------|-------------------------------------|
----------------------------------|-------------------------------------|
--7-------7----10--------10----L--|-------------------------------------|
--7----0--7----10--------10-------|--8----0--8----0--8----0--8-10--L-7--|
--5----0--5-----8---------8----L--|--8----0--8----0--8----0--8-10--L-7--|
-------0--------------------------|--8----0--8----0--8----0--8-10--L-7--|


       PM      PM      PM
  |--3-|  |--3-|  |--3-|  |3|  |3|
  Q    E  Q    E  Q    E  S E  S E     W
------------------------------------|-------------------|
------------------------------------|-------------------|
------------------------------------|-------------------|
--L----0--7----0--7----0--7-8--L-5--|--L----------------|
--L----0--7----0--7----0--7-8--L-5--|--L----------------|
--L----0--7----0--7----0--7-8--L-5--|--L----------------|


                                              PM      PM      PM      PM
  |--3--|  |--3--|  |--3--|  |--3--|     |--3-|  |--3-|  |--3-|  |--3-|
     E  E  E  E  E  E  E  E  E  E  E  E     Q    E  Q    E  Q    E  Q    E
--------------------------------------|----------------------------------|
--------------------------------------|----------------------------------|
--------------------------------------|----------------------------------|
--5--5--5--5--5--5--5--5--5--5--5--5--|--0----0--3----0--5----0--6----0--|
--5--5--5--5--5--5--5--5--5--5--5--5--|--0----0--3----0--5----0--6----0--|
--5--5--5--5--5--5--5--5--5--5--5--5--|--0----0--3----0--5----0--6----0--|


       PM      PM      PM      PM         PM      PM      PM      PM
  |--3-|  |--3-|  |--3-|  |--3-|     |--3-|  |--3-|  |--3-|  |--3-|
     Q    E  Q    E  Q    E  Q    E     Q    E  Q    E  Q    E  Q    E
----------------------------------|----------------------------------|
----------------------------------|----------------------------------|
----------------------------------|----------------------------------|
--0----0--3----0--5----0--6----0--|--0----0--3----0--5----0--6----0--|
--0----0--3----0--5----0--6----0--|--0----0--3----0--5----0--6----0--|
--0----0--3----0--5----0--6----0--|--0----0--3----0--5----0--6----0--|


                                       PM PM PM PM PM PM PM PM PM PM PM PM
  |--3--|  |-3|    |--3--|  |-3|       |--3--|  |--3--|  |--3--|  |--3--|
     E  E  E  E  Q    E  E  E  E  Q       E  E  E  E  E  E  E  E  E  E  E  E
------------------------------------|--------------------------------------|
------------------------------------|--------------------------------------|
--8-----8-----8----5-----5-----5----|--------------------------------------|
--8-----8-----8----5-----5-----5----|--------------------------------------|
--6-----6-----6----3-----3-----3----|--------------------------------------|
------------------------------------|--0--0--0--0--0--0--0--0--0--0--0--0--|


  PM PM PM PM PM PM PM PM PM PM PM PM    PM PM PM PM PM PM PM PM PM PM PM PM
  |--3--|  |--3--|  |--3--|  |--3--|     |--3--|  |--3--|  |--3--|  |--3--|
     E  E  E  E  E  E  E  E  E  E  E  E     E  E  E  E  E  E  E  E  E  E  E  E
--------------------------------------|--------------------------------------|
--------------------------------------|--------------------------------------|
--------------------------------------|--------------------------------------|
--------------------------------------|--------------------------------------|
--------------------------------------|--------------------------------------|
--0--0--0--0--0--0--0--0--0--0--0--0--|--0--0--0--0--0--0--0--0--0--0--0--0--|


  PM PM PM PM PM PM PM PM PM             PM PM PM PM PM PM PM PM PM PM PM PM
  |--3--|  |--3--|  |--3--|  |-3|        |--3--|  |--3--|  |--3--|  |--3--|
     E  E  E  E  E  E  E  E  E  E  Q        E  E  E  E  E  E  E  E  E  E  E  E
--------------------------------------|--------------------------------------|
--------------------------------------|--------------------------------------|
--------------------------------------|--------------------------------------|
--------------------------------------|--------------------------------------|
--------------------------------------|--------------------------------------|
--6--6--6--5--5--5--3--3--3--5--L----|--0--0--0--0--0--0--0--0--0--0--0--0--|


  PM PM PM PM PM PM PM PM PM PM PM PM    PM PM PM PM PM PM PM PM PM PM PM PM
  |--3--|  |--3--|  |--3--|  |--3--|     |--3--|  |--3--|  |--3--|  |--3--|
     E  E  E  E  E  E  E  E  E  E  E  E     E  E  E  E  E  E  E  E  E  E  E  E
--------------------------------------|--------------------------------------|
--------------------------------------|--------------------------------------|
--------------------------------------|--------------------------------------|
--------------------------------------|--------------------------------------|
--------------------------------------|--------------------------------------|
--0--0--0--0--0--0--0--0--0--0--0--0--|--0--0--0--0--0--0--0--0--0--0--0--0--|


  PM PM PM PM PM PM PM PM PM             PM PM PM PM PM PM PM PM PM PM PM PM
  |--3--|  |--3--|  |--3--|  |-3|        |--3--|  |--3--|  |--3--|  |--3--|
     E  E  E  E  E  E  E  E  E  E  Q        E  E  E  E  E  E  E  E  E  E  E  E
--------------------------------------|--------------------------------------|
--------------------------------------|--------------------------------------|
--------------------------------------|--------------------------------------|
--------------------------------------|--------------------------------------|
--------------------------------------|--------------------------------------|
--6--6--6--5--5--5--3--3--3--5--L----|--0--0--0--0--0--0--0--0--0--0--0--0--|


  PM PM PM PM PM PM PM PM PM PM PM PM    PM PM PM PM PM PM PM PM PM PM PM PM
  |--3--|  |--3--|  |--3--|  |--3--|     |--3--|  |--3--|  |--3--|  |--3--|
     E  E  E  E  E  E  E  E  E  E  E  E     E  E  E  E  E  E  E  E  E  E  E  E
--------------------------------------|--------------------------------------|
--------------------------------------|--------------------------------------|
--------------------------------------|--------------------------------------|
--------------------------------------|--------------------------------------|
--------------------------------------|--------------------------------------|
--2--2--2--2--2--2--2--2--2--2--2--2--|--3--3--3--3--3--3--3--3--3--3--3--3--|


  PM PM PM PM PM PM PM PM PM PM PM PM    PM PM PM PM PM PM PM PM PM PM PM PM
  |--3--|  |--3--|  |--3--|  |--3--|     |--3--|  |--3--|  |--3--|  |--3--|
     E  E  E  E  E  E  E  E  E  E  E  E     E  E  E  E  E  E  E  E  E  E  E  E
--------------------------------------|--------------------------------------|
--------------------------------------|--------------------------------------|
--------------------------------------|--------------------------------------|
--------------------------------------|--------------------------------------|
--------------------------------------|--------------------------------------|
--5--5--5--5--5--5--6--6--6--6--6--6--|--0--0--0--0--0--0--0--0--0--0--0--0--|


  PM PM PM PM PM PM PM PM PM PM PM PM
  |--3--|  |--3--|  |--3--|  |--3--|     |----3----|    |----3----|
  E  E  E  E  E  E  E  E  E  E  E  E     Q    Q    Q    Q    Q    Q
--------------------------------------|--------------------------------|
--------------------------------------|--------------------------------|
--------------------------------------|--------------------------------|
--------------------------------------|--3-----------------------------|
--------------------------------------|--3-----------------------------|
--2--2--2--2--2--2--2--2--2--2--2--2--|--3-----------------------------|


                                              PM
  |--3--|  |--3--|  |--3--|  |--3--|     |--3-|  |--3--|         |--3--|
     E  E  E  E  E  E  E  E  E  E  E  E     Q    E  Q     H         Q     E
--------------------------------------|-----------------------------------|
--------------------------------------|-----------------------------------|
--5--5--5--5--5--5--5--5--5--5--5--5--|--7-------7----10--------10-----L--|
--5--5--5--5--5--5--5--5--5--5--5--5--|--7----0--7----10--------10-----L--|
--3--3--3--3--3--3--3--3--3--3--3--3--|--5----0--5-----8---------8-----L--|
--------------------------------------|-------0---------------------------|


       PM                                 PM
  |--3-|  |--3--|         |--3-|     |--3-|  |--3--|         |--3-|
     Q    E  Q     H         Q    E     Q    E  Q     H         Q    E
----------------------------------|----------------------------------|
----------------------------------|----------------------------------|
--7-------7----10--------10----L--|--7-------7----10--------10----L--|
--7----0--7----10--------10-------|--7----0--7----10--------10-------|
--5----0--5-----8---------8----L--|--5----0--5-----8---------8----L--|
-------0--------------------------|-------0--------------------------|


                                          PM
  |--3-|  |--3-|  |--3-|  |--3-|     |--3-|  |--3--|         |--3--|
     Q    E  Q    E  Q    E  Q    E     Q    E  Q     H         Q     E
----------------------------------|-----------------------------------|
----------------------------------|-----------------------------------|
----------------------------------|--7-------7----10--------10-----L--|
--8-------8-------8-------8-------|--7----0--7----10--------10-----L--|
--8-------8-------8-------8-------|--5----0--5-----8---------8-----L--|
--8-------8-------8-------8-------|-------0---------------------------|


       PM                                 PM
  |--3-|  |--3--|         |--3-|     |--3-|  |--3--|         |--3-|
     Q    E  Q     H         Q    E     Q    E  Q     H         Q    E
----------------------------------|----------------------------------|
----------------------------------|----------------------------------|
--7-------7----10--------10----L--|--7-------7----10--------10----L--|
--7----0--7----10--------10-------|--7----0--7----10--------10-------|
--5----0--5-----8---------8----L--|--5----0--5-----8---------8----L--|
-------0--------------------------|-------0--------------------------|


       PM      PM      PM                    PM      PM      PM
  |--3-|  |--3-|  |--3-|  |--|  |3|     |--3-|  |--3-|  |--3-|  |3|  |3|
     Q    E  Q    E  Q    E  S  E  S E     Q    E  Q    E  Q    E  S E  S E
-------------------------------------|------------------------------------|
-------------------------------------|------------------------------------|
-------------------------------------|------------------------------------|
--8----0--8----0--8----0--8-10--L-7--|--L----0--7----0--7----0--7-8--L-5--|
--8----0--8----0--8----0--8-10--L-7--|--L----0--7----0--7----0--7-8--L-5--|
--8----0--8----0--8----0--8-10--L-7--|--L----0--7----0--7----0--7-8--L-5--|

                      |--3--|  |--3--|  |--3--|  |--3--|
     W                   E  E  E  E  E  E  E  E  E  E  E  E
-------------------|--------------------------------------|
-------------------|--------------------------------------|
-------------------|--------------------------------------|
--L----------------|--5--5--5--5--5--5--5--5--5--5--5--5--|
--L----------------|--5--5--5--5--5--5--5--5--5--5--5--5--|
--L----------------|--5--5--5--5--5--5--5--5--5--5--5--5--|


       PM      PM      PM      PM         PM      PM      PM      PM
  |--3-|  |--3-|  |--3-|  |--3-|     |--3-|  |--3-|  |--3-|  |--3-|
     Q    E  Q    E  Q    E  Q    E     Q    E  Q    E  Q    E  Q    E
----------------------------------|----------------------------------|
----------------------------------|----------------------------------|
----------------------------------|----------------------------------|
--0----0--3----0--5----0--6----0--|--0----0--3----0--5----0--6----0--|
--0----0--3----0--5----0--6----0--|--0----0--3----0--5----0--6----0--|
--0----0--3----0--5----0--6----0--|--0----0--3----0--5----0--6----0--|


       PM      PM      PM      PM
  |--3-|  |--3-|  |--3-|  |--3-|     |--3--|  |-3|    |--3--|  |-3|
  Q    E  Q    E  Q    E  Q    E     E  E  E  E  Q    E  E  E  E  Q
----------------------------------|------------------------------------|
----------------------------------|------------------------------------|
----------------------------------|--8-----8-----8----5-----5-----5----|
--0----0--3----0--5----0--6----0--|--8-----8-----8----5-----5-----5----|
--0----0--3----0--5----0--6----0--|--6-----6-----6----3-----3-----3----|
--0----0--3----0--5----0--6----0--|------------------------------------|


       PM      PM      PM      PM         PM      PM      PM      PM
  |--3-|  |--3-|  |--3-|  |--3-|     |--3-|  |--3-|  |--3-|  |--3-|
     Q    E  Q    E  Q    E  Q    E     Q    E  Q    E  Q    E  Q    E
----------------------------------|----------------------------------|
----------------------------------|----------------------------------|
----------------------------------|----------------------------------|
--0----0--3----0--5----0--6----0--|--0----0--3----0--5----0--6----0--|
--0----0--3----0--5----0--6----0--|--0----0--3----0--5----0--6----0--|
--0----0--3----0--5----0--6----0--|--0----0--3----0--5----0--6----0--|


       PM      PM      PM      PM
  |--3-|  |--3-|  |--3-|  |--3-|     |--3--|  |-3|    |--3--|  |-3|
  Q    E  Q    E  Q    E  Q    E     E  E  E  E  Q    E  E  E  E  Q
----------------------------------|------------------------------------|
----------------------------------|------------------------------------|
----------------------------------|--8-----8-----8----5-----5-----5----|
--0----0--3----0--5----0--6----0--|--8-----8-----8----5-----5-----5----|
--0----0--3----0--5----0--6----0--|--6-----6-----6----3-----3-----3----|
--0----0--3----0--5----0--6----0--|------------------------------------|


       PM      PM      PM      PM         PM      PM      PM
  |--3-|  |--3-|  |--3-|  |--3-|     |--3-|  |--3-|  |--3-|  |--3-|
     Q    E  Q    E  Q    E  Q    E     Q    E  Q    E  Q    E  Q    E
----------------------------------|----------------------------------|
----------------------------------|----------------------------------|
--7-------7-------7-------7-------|--7-------7-------7-------5----L--|
--7----0--7----0--7----0--7----0--|--7----0--7----0--7----0--5----L--|
--5----0--5----0--5----0--5----0--|--5----0--5----0--5----0--3----L--|
-------0-------0-------0-------0--|-------0-------0-------0----------|


       PM      PM      PM      PM         PM      PM      PM
  |--3-|  |--3-|  |--3-|  |--3-|     |--3-|  |--3-|  |--3-|  |--3-|
     Q    E  Q    E  Q    E  Q    E     Q    E  Q    E  Q    E  Q    E
----------------------------------|----------------------------------|
----------------------------------|----------------------------------|
--7-------7-------7-------7-------|--7-------7-------7-------5----L--|
--7----0--7----0--7----0--7----0--|--7----0--7----0--7----0--5----L--|
--5----0--5----0--5----0--5----0--|--5----0--5----0--5----0--3----L--|
-------0-------0-------0-------0--|-------0-------0-------0----------|


       PM      PM      PM      PM         PM      PM      PM
  |--3-|  |--3-|  |--3-|  |--3-|     |--3-|  |--3-|  |--3-|  |--3-|
     Q    E  Q    E  Q    E  Q    E     Q    E  Q    E  Q    E  Q    E
----------------------------------|----------------------------------|
----------------------------------|----------------------------------|
--7-------7-------7-------7-------|--7-------7-------7-------5----L--|
--7----0--7----0--7----0--7----0--|--7----0--7----0--7----0--5----L--|
--5----0--5----0--5----0--5----0--|--5----0--5----0--5----0--3----L--|
-------0-------0-------0-------0--|-------0-------0-------0----------|


       PM      PM      PM      PM
  |--3-|  |--3-|  |--3-|  |--3-|     |--3--|  |--3--|  |--3--|  |--3--|
     Q    E  Q    E  Q    E  Q    E     E  E  E  E  E  E  E  E  E  E  E  E
----------------------------------|--------------------------------------|
----------------------------------|--------------------------------------|
--7-------7-------7-------7-------|--5--5--5--5--5--5--5--5--5--5--------|
--7----0--7----0--7----0--7----0--|--5--5--5--5--5--5--5--5--5--5--------|
--5----0--5----0--5----0--5----0--|--3--3--3--3--3--3--3--3--3--3--------|
-------0-------0-------0-------0--|--------------------------------------|


       PM                                  PM
  |--3-|  |--3--|         |--3--|     |--3-|  |--3--|         |--3-|
     Q    E  Q     H         Q     E     Q    E  Q     H         Q    E
-----------------------------------|----------------------------------|
-----------------------------------|----------------------------------|
--7-------7----10--------10-----L--|--7-------7----10--------10----L--|
--7----0--7----10--------10-----L--|--7----0--7----10--------10-------|
--5----0--5-----8---------8-----L--|--5----0--5-----8---------8----L--|
-------0---------------------------|-------0--------------------------|


       PM
  |--3-|  |--3--|         |--3-|     |--3-|  |--3-|  |--3-|  |--3-|
     Q    E  Q     H         Q    E     Q    E  Q    E  Q    E  Q    E
----------------------------------|----------------------------------|
----------------------------------|----------------------------------|
--7-------7----10--------10----L--|----------------------------------|
--7----0--7----10--------10-------|--8-------8-------8-------8-------|
--5----0--5-----8---------8----L--|--8-------8-------8-------8-------|
-------0--------------------------|--8-------8-------8-------8-------|


       PM                                  PM
  |--3-|  |--3--|         |--3--|     |--3-|  |--3--|         |--3-|
     Q    E  Q     H         Q     E     Q    E  Q     H         Q    E
-----------------------------------|----------------------------------|
-----------------------------------|----------------------------------|
--7-------7----10--------10-----L--|--7-------7----10--------10----L--|
--7----0--7----10--------10-----L--|--7----0--7----10--------10-------|
--5----0--5-----8---------8-----L--|--5----0--5-----8---------8----L--|
-------0---------------------------|-------0--------------------------|


       PM                                 PM      PM      PM
  |--3-|  |--3--|         |--3-|     |--3-|  |--3-|  |--3-|  |--|  |3|
     Q    E  Q     H         Q    E     Q    E  Q    E  Q    E  S  E  S E
----------------------------------|-------------------------------------|
----------------------------------|-------------------------------------|
--7-------7----10--------10----L--|-------------------------------------|
--7----0--7----10--------10-------|--8----0--8----0--8----0--8-10--L-7--|
--5----0--5-----8---------8----L--|--8----0--8----0--8----0--8-10--L-7--|
-------0--------------------------|--8----0--8----0--8----0--8-10--L-7--|


       PM      PM      PM
  |--3-|  |--3-|  |--3-|  |3|  |3|
  Q    E  Q    E  Q    E  S E  S E     W
------------------------------------|-------------------|
------------------------------------|-------------------|
------------------------------------|-------------------|
--L----0--7----0--7----0--7-8--L-5--|--L----------------|
--L----0--7----0--7----0--7-8--L-5--|--L----------------|
--L----0--7----0--7----0--7-8--L-5--|--L----------------|

     H        Q      Q        E  E  E  E  E  E  E  E     E  E  E  E  E  E  E  E
------------------------|--------------------------|--------------------------|
------------------------|--------------------------|--------------------------|
------------------------|--------------------------|--------------------------|
--L--------L----/12----|--0--0--0--0--0--0--2--3--|--L--3--3--3--3--3--3--3--|
--L--------L----/12----|--0--0--0--0--0--0--2--3--|--L--3--3--3--3--3--3--3--|
--L--------L----/12----|--0--0--0--0--0--0--2--3--|--L--3--3--3--3--3--3--3--|

     E  E  E  E  E  E  E  E     E  E  E  E  E  E  E  E
--------------------------|--------------------------|
--------------------------|--------------------------|
--5--5--5--5--5-----------|--------------------------|
--5--5--5--5--5--5--7--8--|--L--8--8--7--L--7--7--7--|
--3--3--3--3--3--5--7--8--|--L--8--8--7--L--7--7--7--|
-----------------5--7--8--|--L--8--8--7--L--7--7--7--|

     E  E  E  E  E  E  E  E     E  E  E  E  E  E  E  E
--------------------------|--------------------------|
--------------------------|--------------------------|
--------------------------|--------------------------|
--0--0--0--0--0--0--2--3--|--L--3--3--3--3--3--3--3--|
--0--0--0--0--0--0--2--3--|--L--3--3--3--3--3--3--3--|
--0--0--0--0--0--0--2--3--|--L--3--3--3--3--3--3--3--|

     E  E  E  E  E  E  E  E     E  E  E  E  E  E  E  E
--------------------------|--------------------------|
--------------------------|--------------------------|
--5--5--5--5--5-----------|--------------------------|
--5--5--5--5--5--5--7--8--|--L--8--8--7--L--7--7--7--|
--3--3--3--3--3--5--7--8--|--L--8--8--7--L--7--7--7--|
-----------------5--7--8--|--L--8--8--7--L--7--7--7--|

     E  E  E  E  E  E  E  E     E  E  E  E  E  E  E  E
--------------------------|--------------------------|
--------------------------|--------------------------|
--------------------------|--------------------------|
--0--0--0--0--0--0--2--3--|--L--3--3--3--3--3--3--3--|
--0--0--0--0--0--0--2--3--|--L--3--3--3--3--3--3--3--|
--0--0--0--0--0--0--2--3--|--L--3--3--3--3--3--3--3--|

     E  E  E  E  E  E  E  E     E  E  E  E  E  E  E  E
--------------------------|--------------------------|
--------------------------|--------------------------|
--5--5--5--5--5-----------|--------------------------|
--5--5--5--5--5--5--7--8--|--L--8--8--7--L--7--7--7--|
--3--3--3--3--3--5--7--8--|--L--8--8--7--L--7--7--7--|
-----------------5--7--8--|--L--8--8--7--L--7--7--7--|

     E  E  E  E  E  E  E  E     E  E  E  E  E  E  E  E
--------------------------|--------------------------|
--------------------------|--------------------------|
--------------------------|--------------------------|
--0--0--0--0--0--0--2--3--|--L--3--3--3--3--3--3--3--|
--0--0--0--0--0--0--2--3--|--L--3--3--3--3--3--3--3--|
--0--0--0--0--0--0--2--3--|--L--3--3--3--3--3--3--3--|

     E  E  E  E  E  E  E  E     E  E  E  E  E  E  E  E
--------------------------|--------------------------|
--------------------------|--------------------------|
--5--5--5--5--5-----------|--------------------------|
--5--5--5--5--5--5--7--8--|--L--8--8--7--L--7--7--7--|
--3--3--3--3--3--5--7--8--|--L--8--8--7--L--7--7--7--|
-----------------5--7--8--|--L--8--8--7--L--7--7--7--|

     E  E  E  E  E  E  E  E     E  E  E  E  E  E  E  E
--------------------------|--------------------------|
--------------------------|--------------------------|
--------------------------|--------------------------|
--0--0--0--0--0--0--2--3--|--L--3--3--3--3--3--3--3--|
--0--0--0--0--0--0--2--3--|--L--3--3--3--3--3--3--3--|
--0--0--0--0--0--0--2--3--|--L--3--3--3--3--3--3--3--|

     E  E  E  E  E  E  E  E     E  E  E  E  E  E  E  E
--------------------------|--------------------------|
--------------------------|--------------------------|
--5--5--5--5--5-----------|--------------------------|
--5--5--5--5--5--5--7--8--|--L--8--8--7--L--7--7--7--|
--3--3--3--3--3--5--7--8--|--L--8--8--7--L--7--7--7--|
-----------------5--7--8--|--L--8--8--7--L--7--7--7--|

     E  E  E  E  E  E  E  E     E  E  E  E  E  E  E  E
--------------------------|--------------------------|
--------------------------|--------------------------|
--------------------------|--------------------------|
--0--0--0--0--0--0--2--3--|--L--3--3--3--3--3--3--3--|
--0--0--0--0--0--0--2--3--|--L--3--3--3--3--3--3--3--|
--0--0--0--0--0--0--2--3--|--L--3--3--3--3--3--3--3--|

     E  E  E  E  E  E  E  E     E  E  E  E  E  E  E  E
--------------------------|--------------------------|
--------------------------|--------------------------|
--5--5--5--5--5-----------|--------------------------|
--5--5--5--5--5--5--7--8--|--L--8--8--7--L--7--7--7--|
--3--3--3--3--3--5--7--8--|--L--8--8--7--L--7--7--7--|
-----------------5--7--8--|--L--8--8--7--L--7--7--7--|

     E  E  E  E  E  E  E  E     E  E  E  E  E  E  E  E
--------------------------|--------------------------|
--------------------------|--------------------------|
--------------------------|--------------------------|
--8--8--8--7--L--7--7--7--|--8--8--8--7--L--7--7--7--|
--8--8--8--7--L--7--7--7--|--8--8--8--7--L--7--7--7--|
--8--8--8--7--L--7--7--7--|--8--8--8--7--L--7--7--7--|

[ Tab from: http://www.guitaretab.com/s/stone-sour/347902.html ]
  E  E  E   E  E   E   E   E     W                   W
------------------------------|-------------------|-------------------|
------------------------------|-------------------|-------------------|
------------------------------|-------------------|-------------------|
--8--8--8--10--L--10--10--10--|--0----------------|--L----------------|
--8--8--8--10--L--10--10--10--|--0----------------|--L----------------|
--8--8--8--10--L--10--10--10--|--0----------------|--L----------------|


  W                   W
-------------------|-------------------||
-------------------|-------------------||
-------------------|-------------------||
--L----------------|--L----------------||
--L----------------|--L----------------||
--L----------------|--L----------------||


Guitar 2

Starts at (00:20)
                                        PM       PM       PM       PM
                                   |--3-|   |--3-|   |--3-|   |--3-|
                                      Q    E   Q    E   Q    E   Q    E
-------|-------|-------|-------|--------------------------------------|
-------|-------|-------|-------|--------------------------------------|
-------|-------|-------|-------|--10-------10-------10-------10-------|
-------|-------|-------|-------|---x----0---x----0---x----0---x----0--|
-------|-------|-------|-------|---8----0---8----0---8----0---8----0--|
-------|-------|-------|-------|--------0--------0--------0--------0--|


        PM       PM       PM
   |--3-|   |--3-|   |--3-|   |--|  |--|
      Q    E   Q    E   Q    E   S  E  S  E
------------------------------------------|
------------------------------------------|
--10-------10-------10-------10-12--L-10--|
---x----0---x----0---x----0---x--x-----x--|
---8----0---8----0---8----0---8-10--L--8--|
--------0--------0--------0---------------|


        PM       PM       PM       PM          PM       PM       PM
   |--3-|   |--3-|   |--3-|   |--3-|      |--3-|   |--3-|   |--3-|  |--3--|
      Q    E   Q    E   Q    E   Q    E      Q    E   Q    E   Q    E  Q     E
--------------------------------------|--------------------------------------|
--------------------------------------|--------------------------------------|
--10-------10-------10-------10-------|--10-------10-------10-------9----10--|
---x----0---x----0---x----0---x----0--|---x----0---x----0---x----0--x-----x--|
---8----0---8----0---8----0---8----0--|---8----0---8----0---8----0--7-----8--|
--------0--------0--------0--------0--|--------0--------0--------0-----------|


       PM          PM       PM      PM
  |--3-|   |--|  |3|   |--3-|  |--3-|
     Q    E   S  E  S E   Q    E  Q    E
---------------------------------------|
---------------------------------------|
--L-------10-12--L----10-------9-------|
-------0---x--x----0---x----0--x----0--|
--L----0---8-10--L-0---8----0--7----0--|
-------0-----------0--------0-------0--|


        PM          PM       PM       PM
   |--3-|   |--|  |3|   |--3-|  |--3--|
      Q    E   S  E  S E   Q    E  Q     E
-----------------------------------------|
-----------------------------------------|
--10-------10-12--L----10-------9----10--|
---x----0---x--x----0---x----0--x-----x--|
---8----0---8-10--L-0---8----0--7-----8--|
--------0-----------0--------0-----------|


       PM          PM          PM       PM
  |--3-|   |--|  |3|   |--|  |3|   |--3-|
     Q    E   S  E  S E   S  E  S E   Q    E
-------------------------------------------|
-------------------------------------------|
--L-------10-12--L----12-14--L----12-------|
-------0---x--x----0---x--x----0---x----0--|
--L----0---8-10--L-0--10-12--L-0--10----0--|
-------0-----------0-----------0--------0--|


        PM       PM       PM
   |--3-|   |--3-|   |--3-|   |--|  |3|
      Q    E   Q    E   Q    E   S  E  S E
-----------------------------------------|
-----------------------------------------|
--10-------10-------10-------10-12--L-9--|
---x----0---x----0---x----0---x--x----x--|
---8----0---8----0---8----0---8-10--L-7--|
--------0--------0--------0--------------|


        PM      PM      PM
   |--3-|  |--3-|  |--3-|  |--|  |3|
   Q    E  Q    E  Q    E  S  E  S E     W                   W
--------------------------------------|-------------------|-------------------|
--------------------------------------|-------------------|-------------------|
---L-------9-------9-------9-10--L-7--|--L----------------|--L----------------|
--------0--x----0--x----0--x--x----x--|-------------------|-------------------|
---L----0--7----0--7----0--7--8--L-5--|--L----------------|--L----------------|
--------0-------0-------0-------------|-------------------|-------------------|


  |--3--|  |--3--|  |--3--|  |--3--|     |--3--|  |--3--|  |--3--|  |--3--|
     E  E  E  E  E  E  E  E  E  E  E  E     E  E  E  E  E  E  E  E  E  E  E  E
--------------------------------------|--------------------------------------|
-----------3-----------------3--------|-----------3-----------------3--------|
--------2-----2-----------2-----2-----|--------2-----2-----------2-----2-----|
--0--3-----------3--0--3-----------3--|--0--3-----------3--0--3-----------3--|
--------------------------------------|--------------------------------------|
--------------------------------------|--------------------------------------|


  |--3--|  |--3--|  |--3--|  |--3--|     |--3--|  |--3--|  |--3--|  |--3--|
     E  E  E  E  E  E  E  E  E  E  E  E     E  E  E  E  E  E  E  E  E  E  E  E
--------------------------------------|--------------------------------------|
-----------3-----------------3--------|-----------3-----------------3--------|
--------2-----2-----------2-----2-----|--------2-----2-----------2-----2-----|
--0--3-----------3--0--3-----------3--|--0--3-----------3--0--3-----------3--|
--------------------------------------|--------------------------------------|
--------------------------------------|--------------------------------------|


  |--3--|  |--3--|  |--3--|  |--3--|     |--3--|  |--3--|  |--3--|  |--3--|
     E  E  E  E  E  E  E  E  E  E  E  E     E  E  E  E  E  E  E  E  E  E  E  E
--------------------------------------|--------------------------------------|
-----------3-----------------3--------|-----------3-----------------3--------|
--------2-----2-----------2-----2-----|--------2-----2-----------2-----2-----|
--0--3-----------3--0--3-----------3--|--0--3-----------3--0--3-----------3--|
--------------------------------------|--------------------------------------|
--------------------------------------|--------------------------------------|


  |--3--|  |--3--|  |--3--|  |--3--|     |--3--|  |--3--|  |--3--|  |--3--|
     E  E  E  E  E  E  E  E  E  E  E  E     E  E  E  E  E  E  E  E  E  E  E  E
--------------------------------------|--------------------------------------|
-----------3-----------------3--------|-----------3-----------------3--------|
--------2-----2-----------2-----2-----|--------2-----2-----------2-----2-----|
--0--3-----------3--0--3-----------3--|--0--3-----------3--0--3-----------3--|
--------------------------------------|--------------------------------------|
--------------------------------------|--------------------------------------|


  |--3--|  |--3--|  |--3--|  |--3--|     |--3--|  |--3--|  |--3--|  |--3--|
     E  E  E  E  E  E  E  E  E  E  E  E     E  E  E  E  E  E  E  E  E  E  E  E
--------------------------------------|--------------------------------------|
-----------3-----------------3--------|-----------3-----------------3--------|
--------2-----2-----------2-----2-----|--------2-----2-----------2-----2-----|
--0--3-----------3--0--3-----------3--|--0--3-----------3--0--3-----------3--|
--------------------------------------|--------------------------------------|
--------------------------------------|--------------------------------------|


  |--3--|  |--3--|  |--3--|  |--3--|     |--3--|  |--3--|  |--3--|  |--3--|
     E  E  E  E  E  E  E  E  E  E  E  E     E  E  E  E  E  E  E  E  E  E  E  E
--------------------------------------|--------------------------------------|
-----------3-----------------3--------|-----------3-----------------3--------|
--------2-----2-----------2-----2-----|--------2-----2-----------2-----2-----|
--0--3-----------3--0--3-----------3--|--0--3-----------3--0--3-----------3--|
--------------------------------------|--------------------------------------|
--------------------------------------|--------------------------------------|


  |--3--|  |--3--|  |--3--|  |--3--|     |--3--|  |--3--|  |--3--|  |--3--|
     E  E  E  E  E  E  E  E  E  E  E  E     E  E  E  E  E  E  E  E  E  E  E  E
--------------------------------------|--------------------------------------|
-----------3-----------------3--------|-----------3-----------------3--------|
--------2-----2-----------2-----2-----|--------2-----2-----------2-----2-----|
--0--3-----------3--0--3-----------3--|--0--3-----------3--0--3-----------3--|
--------------------------------------|--------------------------------------|
--------------------------------------|--------------------------------------|


  |--3--|  |--3--|  |--3--|  |--3--|     |--3--|  |--3--|  |--3--|  |--3--|
     E  E  E  E  E  E  E  E  E  E  E  E     E  E  E  E  E  E  E  E  E  E  E  E
--------------------------------------|--------------------------------------|
-----------3-----------------3--------|-----------3-----------------3--------|
--------2-----2-----------2-----2-----|--------2-----2-----------2-----2-----|
--0--3-----------3--0--3-----------3--|--0--3-----------3--0--3-----------3--|
--------------------------------------|--------------------------------------|
--------------------------------------|--------------------------------------|


       PM                                 PM
  |--3-|  |--3--|         |--3-|     |--3-|  |--3--|         |--3-|
     Q    E  Q     H         Q    E     Q    E  Q     H         Q    E
----------------------------------|----------------------------------|
----------------------------------|----------------------------------|
--7-------7----10--------10----L--|--7-------7----10--------10----L--|
--x----0--x-----x---------x-------|--x----0--x-----x---------x-------|
--5----0--5-----8---------8----L--|--5----0--5-----8---------8----L--|
-------0--------------------------|-------0--------------------------|


       PM
  |--3-|  |--3--|         |--3-|
  Q    E  Q     H         Q    E      Q     Q    Q     Q
----------------------------------|-------------------------|
----------------------------------|--11----10----8----10----|
--7-------7----10--------10----L--|---x-----x----x-----x----|
--x----0--x-----x---------x-------|---8-----7----5-----7----|
--5----0--5-----8---------8----L--|-------------------------|
-------0--------------------------|-------------------------|


       PM                                    PM
  |--3-|  |--3--|         |---3---|     |--3-|  |--3--|         |---3---|
     Q    E  Q     H         E   E   E     Q    E  Q     H         E   E   E
-------------------------------------|-------------------------------------|
-------------------------------------|-------------------------------------|
--7-------7----10--------10--12--10--|--7-------7----10--------10--12--10--|
--x----0--x-----x---------x---x---x--|--x----0--x-----x---------x---x---x--|
--5----0--5-----8---------8--10---8--|--5----0--5-----8---------8--10---8--|
-------0-----------------------------|-------0-----------------------------|


       PM                                     PM       PM       PM
  |--3-|  |--3--|         |---3---|      |--3-|   |--3-|   |--3-|   |--|  |3|
     Q    E  Q     H         E   E   E      Q    E   Q    E   Q    E   S  E  S E
-------------------------------------|-----------------------------------------|
-------------------------------------|-----------------------------------------|
--7-------7----10--------10--12--10--|--10-------10-------10-------10-12--L-9--|
--x----0--x-----x---------x---x---x--|---x----0---x----0---x----0---x--x----x--|
--5----0--5-----8---------8--10---8--|---8----0---8----0---8----0---8-10--L-7--|
-------0-----------------------------|--------0--------0--------0--------------|


        PM      PM      PM
   |--3-|  |--3-|  |--3-|  |--|  |3|
   Q    E  Q    E  Q    E  S  E  S E     W
--------------------------------------|-------------------|
--------------------------------------|-------------------|
---L-------9-------9-------9-10--L-7--|--L----------------|
--------0--x----0--x----0--x--x----x--|-------------------|
---L----0--7----0--7----0--7--8--L-5--|--L----------------|
--------0-------0-------0-------------|-------------------|


   |--3--|  |--3--|  |--3--|  |--3--|  |--3--|  |--3--|  |--3--| |-3-| |-3-| |-3
   T  T  T  T  T  T  T  T  T  T  T  T  T  T  T  T  T  T  T  T  T T T T T T T T T
--------------------------------------------------------------------------------
--pickslide---------------------------------------------------------------------
--------------------------------------------------------------------------------
--------------------------------------------------------------------------------
--------------------------------------------------------------------------------
--------------------------------------------------------------------------------


       PM      PM      PM      PM         PM      PM      PM      PM
  |--3-|  |--3-|  |--3-|  |--3-|     |--3-|  |--3-|  |--3-|  |--3-|
     Q    E  Q    E  Q    E  Q    E     Q    E  Q    E  Q    E  Q    E
----------------------------------|----------------------------------|
----------------------------------|----------------------------------|
--2-------5-------7-------8-------|--2-------5-------7-------8-------|
--x----0--x----0--x----0--x----0--|--x----0--x----0--x----0--x----0--|
--0----0--3----0--5----0--6----0--|--0----0--3----0--5----0--6----0--|
-------0-------0-------0-------0--|-------0-------0-------0-------0--|


       PM      PM      PM      PM
  |--3-|  |--3-|  |--3-|  |--3-|     |--3--|  |-3|    |--3--|  |-3|
  Q    E  Q    E  Q    E  Q    E     E  E  E  E  Q    E  E  E  E  Q
----------------------------------|------------------------------------|
----------------------------------|------------------------------------|
--2-------5-------7-------8-------|--3-----3-----3----0-----0-----0----|
--x----0--x----0--x----0--x----0--|------------------------------------|
--0----0--3----0--5----0--6----0--|------------------------------------|
-------0-------0-------0-------0--|------------------------------------|


  |--3--|  |--3--|  |--3--|  |--3--|     |--3--|  |--3--|  |--3--|  |--3--|
     E  E  E  E  E  E  E  E  E  E  E  E     E  E  E  E  E  E  E  E  E  E  E  E
--------------------------------------|--------------------------------------|
-----------3-----------------3--------|-----------3-----------------3--------|
--------2-----2-----------2-----2-----|--------2-----2-----------2-----2-----|
--0--3-----------3--0--3-----------3--|--0--3-----------3--0--3-----------3--|
--------------------------------------|--------------------------------------|
--------------------------------------|--------------------------------------|


  |--3--|  |--3--|  |--3--|  |--3--|     |--3--|  |--3--|  |--3--|  |--3--|
     E  E  E  E  E  E  E  E  E  E  E  E     E  E  E  E  E  E  E  E  E  E  E  E
--------------------------------------|--------------------------------------|
-----------3-----------------3--------|-----------3-----------------3--------|
--------2-----2-----------2-----2-----|--------2-----2-----------2-----2-----|
--0--3-----------3--0--3-----------3--|--0--3-----------3--0--3-----------3--|
--------------------------------------|--------------------------------------|
--------------------------------------|--------------------------------------|


  |--3--|  |--3--|  |--3--|  |--3--|     |--3--|  |--3--|  |--3--|  |--3--|
     E  E  E  E  E  E  E  E  E  E  E  E     E  E  E  E  E  E  E  E  E  E  E  E
--------------------------------------|--------------------------------------|
-----------3-----------------3--------|-----------3-----------------3--------|
--------2-----2-----------2-----2-----|--------2-----2-----------2-----2-----|
--0--3-----------3--0--3-----------3--|--0--3-----------3--0--3-----------3--|
--------------------------------------|--------------------------------------|
--------------------------------------|--------------------------------------|


  |--3--|  |--3--|  |--3--|  |--3--|     |--3--|  |--3--|  |--3--|  |--3--|
     E  E  E  E  E  E  E  E  E  E  E  E     E  E  E  E  E  E  E  E  E  E  E  E
--------------------------------------|--------------------------------------|
-----------3-----------------3--------|-----------3-----------------3--------|
--------2-----2-----------2-----2-----|--------2-----2-----------2-----2-----|
--0--3-----------3--0--3-----------3--|--0--3-----------3--0--3-----------3--|
--------------------------------------|--------------------------------------|
--------------------------------------|--------------------------------------|


  |--3--|  |--3--|  |--3--|  |--3--|     |--3--|  |--3--|  |--3--|  |--3--|
     E  E  E  E  E  E  E  E  E  E  E  E     E  E  E  E  E  E  E  E  E  E  E  E
--------------------------------------|--------------------------------------|
-----------3-----------------3--------|-----------3-----------------3--------|
--------2-----2-----------2-----2-----|--------2-----2-----------2-----2-----|
--0--3-----------3--0--3-----------3--|--0--3-----------3--0--3-----------3--|
--------------------------------------|--------------------------------------|
--------------------------------------|--------------------------------------|


  |--3--|  |--3--|  |--3--|  |--3--|     |--3--|  |--3--|  |--3--|  |--3--|
     E  E  E  E  E  E  E  E  E  E  E  E     E  E  E  E  E  E  E  E  E  E  E  E
--------------------------------------|--------------------------------------|
-----------3-----------------3--------|-----------3-----------------3--------|
--------2-----2-----------2-----2-----|--------2-----2-----------2-----2-----|
--0--3-----------3--0--3-----------3--|--0--3-----------3--0--3-----------3--|
--------------------------------------|--------------------------------------|
--------------------------------------|--------------------------------------|


  |--3--|  |--3--|  |--3--|  |--3--|     |--3--|  |--3--|  |--3--|  |--3--|
     E  E  E  E  E  E  E  E  E  E  E  E     E  E  E  E  E  E  E  E  E  E  E  E
--------------------------------------|--------------------------------------|
-----------3-----------------3--------|-----------3-----------------3--------|
--------2-----2-----------2-----2-----|--------2-----2-----------2-----2-----|
--0--3-----------3--0--3-----------3--|--0--3-----------3--0--3-----------3--|
--------------------------------------|--------------------------------------|
--------------------------------------|--------------------------------------|


                                                    PM
  ---   |--3--|  |--3--|  |--3--|  |--3--|     |--3-|  |--3--|         |--3-|
           E  E  E  E  E  E  E  E  E  E  E  E     Q    E  Q     H         Q    E
-----|--------------------------------------|----------------------------------|
-----|--------------------------------------|----------------------------------|
-----|--5--5--5--5--5--5--5--5--5--5--5--5--|--7-------7----10--------10----L--|
-----|--5--5--5--5--5--5--5--5--5--5--5--5--|--x----0--x-----x---------x-------|
-----|--3--3--3--3--3--3--3--3--3--3--3--3--|--5----0--5-----8---------8----L--|
-----|--------------------------------------|-------0--------------------------|


       PM                                 PM
  |--3-|  |--3--|         |--3-|     |--3-|  |--3--|         |--3-|
     Q    E  Q     H         Q    E     Q    E  Q     H         Q    E
----------------------------------|----------------------------------|
----------------------------------|----------------------------------|
--7-------7----10--------10----L--|--7-------7----10--------10----L--|
--x----0--x-----x---------x-------|--x----0--x-----x---------x-------|
--5----0--5-----8---------8----L--|--5----0--5-----8---------8----L--|
-------0--------------------------|-------0--------------------------|


                                 PM
                            |--3-|  |--3--|         |---3---|
      Q     Q    Q     Q       Q    E  Q     H         E   E   E
-------------------------|-------------------------------------|
--11----10----8----10----|-------------------------------------|
---x-----x----x-----x----|--7-------7----10--------10--12--10--|
---8-----7----5-----7----|--x----0--x-----x---------x---x---x--|
-------------------------|--5----0--5-----8---------8--10---8--|
-------------------------|-------0-----------------------------|


       PM                                    PM
  |--3-|  |--3--|         |---3---|     |--3-|  |--3--|         |---3---|
     Q    E  Q     H         E   E   E     Q    E  Q     H         E   E   E
-------------------------------------|-------------------------------------|
-------------------------------------|-------------------------------------|
--7-------7----10--------10--12--10--|--7-------7----10--------10--12--10--|
--x----0--x-----x---------x---x---x--|--x----0--x-----x---------x---x---x--|
--5----0--5-----8---------8--10---8--|--5----0--5-----8---------8--10---8--|
-------0-----------------------------|-------0-----------------------------|


        PM       PM       PM
   |--3-|   |--3-|   |--3-|   |--|  |3|
      Q    E   Q    E   Q    E   S  E  S E
-----------------------------------------|
-----------------------------------------|
--10-------10-------10-------10-12--L-9--|
---x----0---x----0---x----0---x--x----x--|
---8----0---8----0---8----0---8-10--L-7--|
--------0--------0--------0--------------|


        PM      PM      PM
   |--3-|  |--3-|  |--3-|  |--|  |3|
   Q    E  Q    E  Q    E  S  E  S E     W
--------------------------------------|-------------------|
--------------------------------------|-------------------|
---L-------9-------9-------9-10--L-7--|--L----------------|
--------0--x----0--x----0--x--x----x--|-------------------|
---L----0--7----0--7----0--7--8--L-5--|--L----------------|
--------0-------0-------0-------------|-------------------|


   |--3--|  |--3--|  |--3--|  |--3--|  |--3--|  |--3--|  |--3--| |-3-| |-3-| |-3
   T  T  T  T  T  T  T  T  T  T  T  T  T  T  T  T  T  T  T  T  T T T T T T T T T
--------------------------------------------------------------------------------
--pickslide---------------------------------------------------------------------
--------------------------------------------------------------------------------
--------------------------------------------------------------------------------
--------------------------------------------------------------------------------
--------------------------------------------------------------------------------

                    |--3--|     |--3--|
   Q     Q     Q    Q     E     Q     E  Q    Q    Q
-----------------------------|--------------------------|
-----------------------------|--------------------------|
--14----12----10----9----10--|--L----10--9----7----5----|
-----------------------------|--------------------------|
-----------------------------|--------------------------|
-----------------------------|--------------------------|

                     |--3--|         |--|   |--3--|   |--3--|   |--3--|
      Q     Q     Q     Q     E     E   S  E   Q     E   Q     E   Q     E
------------------------------|------------------------------------------|
--------------------15----13--|--L--11-13--10----11--13----11--10--------|
--14----12----10--------------|--------------------------------------10--|
------------------------------|------------------------------------------|
------------------------------|------------------------------------------|
------------------------------|------------------------------------------|

                    |--3--|     |--3--|
   Q     Q     Q    Q     E     Q     E  Q    Q    Q
-----------------------------|--------------------------|
-----------------------------|--------------------------|
--14----12----10----9----10--|--L----10--9----7----5----|
-----------------------------|--------------------------|
-----------------------------|--------------------------|
-----------------------------|--------------------------|


  |---3--|          |---3---|
  E   E  H          E   E   H
--------------------------------------|
--6------6----------8-------8---------|
--9b-----9b--------11b-----11b--------|
--------------------------------------|
--------------------------------------|
--------------------------------------|


   |-3-|  |--|   |---3---|   |---3---|   |---3---|
      E   S  S  E   E   E   E   E   E   E   E   E   E
----------------------------------------------------|
------------------------------------------------16--|
--15--15-14-12------------------------------15------|
----------------15--13--12----------12--15----------|
----------------------------10--13------------------|
----------------------------------------------------|

   |---------3---------|  |--------3--------|
      E   E   Q     E  S  S  E   E   Q     E   E
-----------------------------------------------|
--15------15-----L--L-15-15------15-----L--15--|
--18b-----18b----L--L-18-18b-----18b----L------|
-----------------------------------------------|
-----------------------------------------------|
-----------------------------------------------|

   |---3---|   |---3---|   |---3---|   |---3---|
      E   E   E   E   E   E   E   E   E   E   E   E
--15--12--12--12--13--13--13----------------------|
------------------------------15--15--15--13--15--|
--------------------------------------------------|
--------------------------------------------------|
--------------------------------------------------|
--------------------------------------------------|

   |--------3--------|   |-----------3----------|
   E   E   Q     E   E   E   E   Q     S  S  S  S
-----------------------------------------------13-|
--15------15-----L--15--15------15-----L----13----|
--18b-----18b----L--18--18b-----18b------14-------|
--------------------------------------------------|
--------------------------------------------------|
--------------------------------------------------|


   |--3--|  |--3--|  |--3--|  |--3--|  |----3----|
   S  S  S  S  S  S  S  S  S  S  S  S  S  S  E   H
--15-13---------------------------------------------------|
--------13-15-13-15-13------------------------------------|
-----------------------17-14-17-14-17-14-17---------------|
--------------------------------------------15--17--------|
----------------------------------------------------------|
----------------------------------------------------------|


   |--3--|  |--3--|  |--3--|  |--3--|  |--3--|  |--3--|  |--3--|
   S  S  S  S  S  S  S  S  S  S  S  S  S  S  S  S  S  S  S  S  S  S  S
-----------------------------------------------------------------------|
--15-16-15-16-15-16-13-15-16-15-13-------------------------------------|
-----------------------------------12-14-15-14-12-------------------12-|
--------------------------------------------------15-14-12-14-15-15----|
-----------------------------------------------------------------------|
-----------------------------------------------------------------------|

   |---3---|   |---3---|   |----3---|
   E   E   E   E   E   E   H        Q
--13--12------15--13------17--------L----|
----------13----------13------------------|
------------------------------------------|
------------------------------------------|
------------------------------------------|
------------------------------------------|


   T  T  T  T  T  T  T  T  T  T  T  T  T  T  T  T  T  T  T  T  T  T  T  T  T  T
--13-13-13-13-13-13-13-13-12-12-12-12-12-12-12-12-15-15-15-15-15-15-15-15-13-13-
--------------------------------------------------------------------------------
--------------------------------------------------------------------------------
--------------------------------------------------------------------------------
--------------------------------------------------------------------------------
--------------------------------------------------------------------------------


                                PM
                           |--3-|  |--3--|         |--3-|
      H          H            Q    E  Q     H         Q    E
------------------------|----------------------------------|
------------------------|----------------------------------|
------------------------|--7-------7----10--------10----L--|
------------/12--------|--x----0--x-----x---------x-------|
--10--------/12--------|--5----0--5-----8---------8----L--|
------------/12--------|-------0--------------------------|


       PM                                 PM
  |--3-|  |--3--|         |--3-|     |--3-|  |--3--|         |--3-|
     Q    E  Q     H         Q    E     Q    E  Q     H         Q    E
----------------------------------|----------------------------------|
----------------------------------|----------------------------------|
--7-------7----10--------10----L--|--7-------7----10--------10----L--|
--x----0--x-----x---------x-------|--x----0--x-----x---------x-------|
--5----0--5-----8---------8----L--|--5----0--5-----8---------8----L--|
-------0--------------------------|-------0--------------------------|


                                 PM
                            |--3-|  |--3--|         |---3---|
      Q     Q    Q     Q       Q    E  Q     H         E   E   E
-------------------------|-------------------------------------|
--11----10----8----10----|-------------------------------------|
---x-----x----x-----x----|--7-------7----10--------10--12--10--|
---8-----7----5-----7----|--x----0--x-----x---------x---x---x--|
-------------------------|--5----0--5-----8---------8--10---8--|
-------------------------|-------0-----------------------------|


       PM                                    PM
  |--3-|  |--3--|         |---3---|     |--3-|  |--3--|         |---3---|
     Q    E  Q     H         E   E   E     Q    E  Q     H         E   E   E
-------------------------------------|-------------------------------------|
-------------------------------------|-------------------------------------|
--7-------7----10--------10--12--10--|--7-------7----10--------10--12--10--|
--x----0--x-----x---------x---x---x--|--x----0--x-----x---------x---x---x--|
--5----0--5-----8---------8--10---8--|--5----0--5-----8---------8--10---8--|
-------0-----------------------------|-------0-----------------------------|


        PM       PM       PM
   |--3-|   |--3-|   |--3-|   |--|  |3|
      Q    E   Q    E   Q    E   S  E  S E
-----------------------------------------|
-----------------------------------------|
--10-------10-------10-------10-12--L-9--|
---x----0---x----0---x----0---x--x----x--|
---8----0---8----0---8----0---8-10--L-7--|
--------0--------0--------0--------------|


        PM      PM      PM
   |--3-|  |--3-|  |--3-|  |--|  |3|
   Q    E  Q    E  Q    E  S  E  S E     W
--------------------------------------|-------------------|
--------------------------------------|-------------------|
---L-------9-------9-------9-10--L-7--|--L----------------|
--------0--x----0--x----0--x--x----x--|-------------------|
---L----0--7----0--7----0--7--8--L-5--|--L----------------|
--------0-------0-------0-------------|-------------------|

     H        Q      Q         E   E   E   E   E   E   E   E
------------------------|----------------------------------|
------------------------|----------------------------------|
--L--------L------------|--14--10------14--10------14------|
----------------/12----|----------12----------12------10--|
--L--------L----/12----|----------------------------------|
----------------/12----|----------------------------------|

      E  E   E   E  E   E   E   E      E   E   E   E   E   E   E   E
--------------------------------|----------------------------------|
--------------------------------|----------------------------------|
--12--9------12--9------12------|--14--10------14--10------14--15--|
---------10---------10------10--|----------12----------12----------|
--------------------------------|----------------------------------|
--------------------------------|----------------------------------|

     E   E   E   E   E   E   E   E      E   E   E   E   E   E   E   E
---------------------------------|----------------------------------|
---------------------------------|----------------------------------|
--L--14------17--15--14----------|--14--10------14--10------14------|
---------15--------------15--12--|----------12----------12------10--|
---------------------------------|----------------------------------|
---------------------------------|----------------------------------|

      E  E   E   E  E   E   E   E      E   E   E   E   E   E   E   E
--------------------------------|----------------------------------|
--------------------------------|----------------------------------|
--12--9------12--9------12------|--14--10------14--10------14--15--|
---------10---------10------10--|----------12----------12----------|
--------------------------------|----------------------------------|
--------------------------------|----------------------------------|


  E   E   E   E   E   E   E   E      E  E   E   Q    E   Q
---------------------------------|----------------------------|
---------------------------------|----------------------------|
--L--14------17--15--14----------|--10--9--10-----------------|
---------15--------------15--12--|-------------12----L--12----|
---------------------------------|----------------------------|
---------------------------------|----------------------------|

      E   E   E   Q    E   E   E      E  E   E   Q     E   E   E
-------------------------------|-------------------------------|
-------------------------------|-------------------------------|
-------------------------------|--10--9--10--------------------|
--------------10----L--10--12--|-------------12----------------|
--10--12--13-------------------|-------------------10--12--13--|
-------------------------------|-------------------------------|


  Q    E   H        E      E  E   E   Q    E   Q
-----------------------|----------------------------|
-----------------------|----------------------------|
-----------------------|--10--9--10-----------------|
-----------------------|-------------12----L--12----|
--L----L--12--------L--|----------------------------|
-----------------------|----------------------------|

      E   E   E   Q    E   E   E      E  E   E   Q     E   E   E
-------------------------------|-------------------------------|
-------------------------------|-------------------------------|
-------------------------------|--10--9--10--------------------|
--------------10----L--10--12--|-------------12----------------|
--10--12--13-------------------|-------------------10--12--13--|
-------------------------------|-------------------------------|


  Q    E   H        E      E  E   E   Q    E   Q
-----------------------|----------------------------|
-----------------------|----------------------------|
-----------------------|--10--9--10-----------------|
-----------------------|-------------12----L--12----|
--L----L--12--------L--|----------------------------|
-----------------------|----------------------------|

      E   E   E   Q    E   E   E      E  E   E   Q     E   E   E
-------------------------------|-------------------------------|
-------------------------------|-------------------------------|
-------------------------------|--10--9--10--------------------|
--------------10----L--10--12--|-------------12----------------|
--10--12--13-------------------|-------------------10--12--13--|
-------------------------------|-------------------------------|


  Q    E   H        E      E  E   E   Q    E   Q
-----------------------|----------------------------|
-----------------------|----------------------------|
-----------------------|--10--9--10-----------------|
-----------------------|-------------12----L--12----|
--L----L--12--------L--|----------------------------|
-----------------------|----------------------------|

      E   E   E   Q    E   E   E      E  E   E   Q     E   E   E
-------------------------------|-------------------------------|
-------------------------------|-------------------------------|
-------------------------------|--10--9--10--------------------|
--------------10----L--10--12--|-------------12----------------|
--10--12--13-------------------|-------------------10--12--13--|
-------------------------------|-------------------------------|

     Q    E   H        E      Q    E   H        E      Q    E   H        E
-----------------------|------------------------|------------------------|
-----------------------|------------------------|------------------------|
-----------------------|------------------------|------------------------|
-----------------------|------------------------|------------------------|
--L----L--12--------L--|--13----L--12--------L--|--13----L--12--------L--|
-----------------------|------------------------|------------------------|


   Q    E   H        E     W                   W
------------------------|-------------------|-------------------|
------------------------|-------------------|-------------------|
------------------------|-------------------|-------------------|
------------------------|--0----------------|--L----------------|
--13----L--15--------L--|--0----------------|--L----------------|
------------------------|--0----------------|--L----------------|


  W                   W
-------------------|-------------------||
-------------------|-------------------||
-------------------|-------------------||
--L----------------|--L----------------||
--L----------------|--L----------------||
--L----------------|--L----------------||

Acordes para:
    Colaboração e revisão:
    • Ítalo Holanda

    0 comentários

      mostrar mais comentários

      Conseguiu tocar?

      0tocaram0ainda não

      Grave um vídeo tocando Do Me a Favor e mande pra gente!

      00:00 / 00:00
      outros vídeos desta música
      repetirqualidadeautomática
      Outro vídeos desta música
        00:00 / 00:00
        automática
        OK