Cifra Club

Aprenda

Say Youll Haunt Me

Stone Sour

Cifra: Principal (violão e guitarra)
tom: G
E|---2----------|---2------5---|---2------4---|---2---2---|
B|-----3----2---|-----3--------|-----3--------|---3---3---|
G|-------4------|-------4------|-------4------|---4---4---|
D|--------------|--------------|--------------|-----------|
A|--------------|--------------|--------------|-----------|
E|--------------|--------------|--------------|-----------|

(verso 8x)
E|---2---------------------------------|
B|-----3---2-----2-----2-----2---------|
G|-------4---4-----4-----4-----4---4---|
D|-------------4-----4-----4-----4-----|
A|-------------------------------------|
E|-------------------------------------|

(pré-refrão)
E|-----------------------------------------------------------------------|
B|-----------------------------------------------------------------------|
G|-----------------------------------------------------------------------|
D|---9-----------------------------------------------------------7---11--|
A|---9-9-9-9-9-9-9-9-9-9-9-9-9-9-9-9-9-9-9-9-9-9-9-9-9-9-9-9-9---7---11--|
E|---7-7-7-7-7-7-7-7-7-7-7-7-7-7-7-7-7-7-7-7-7-7-7-7-7-7-7-7-7---5---9---|
       . . . . . . . . . . . . . . . . . . . . . . . . . . . .

(refrão)
E|-----------------------------------|--------------------------------------|
B|-----------------------------------|--------------------------------------|
G|----------------7---7-7-7-7/9/7/9--|--------------------------------------|
D|--9-9-9-9-9-7---7---7-7-7-x-x-x-x--|--7-7-7-7-7---11/9--9-9-9--9/11/9/11--|
A|--9-9-9-9-9-7-x-5---5-5-5-5/7/5/7--|--7-7-7-7-7---11/9--9-9-9--x--x-x--x--|
E|--7-7-7-7-7-5-x--------------------|--5-5-5-5-5-0-9-/7--7-7-7--7/-9/7/-9--|

(ponte)
E|---------------------------------------------------------------------|
B|---------------------------------------------------------------------|
G|---------------------------------------------------------------------|
D|---------------------------------------------------------------------|
A|-9-9---7-9-9---12---9---7-9-9---7-9-9-9-9-9-9-9-12---11--12---7---9--|
E|-7-7-0-5-7-7-0-10-0-7-0-5-7-7-0-5-7-7-7-7-7-7-7-10-0-9-0-10-0-5-0-7--|
       .       .    .   .       .                    .   .    .   .

(solo)
E|--------------------------------------------------------|
B|-19-19/12/17/12-----------------------------------------|
G|-----------------19--18--16--14--16--18--19--21--23--21-|
D|--------------------------------------------------------|
A|--------------------------------------------------------|
E|--------------------------------------------------------|

E|--------------------------------------------------------|
B|-19-19/12/17/12-----------------------------------------|
G|-----------------19--18--16--14--16--18--19--21--23~~~~-|
D|--------------------------------------------------------|
A|--------------------------------------------------------|
E|--------------------------------------------------------|

Composição de Stone Sour
Colaboração e revisão:
  • Sérgio
7.138 exibições
    • ½ Tom
    • A
    • Bb
    • B
    • C
    • Db
    • D
    • Eb
    • E
    • F
    • F#
    • G
    • Ab
  • Adicionar à lista

    0 comentários

    Ver todos os comentários

    Conseguiu tocar?

    4 Tocaram 0 Ainda não

    Grave um vídeo tocando Say Youll Haunt Me e nos envie!

    00:00 / 00:00
    Outros vídeos desta música
    Repetir Qualidade Automático
    Outros vídeos desta música
    00:00 / 00:00
    Automático

    Cifra Club Pro

    Aproveite o Cifra Club com benefícios exclusivos e sem anúncios
    Cifra Club Pro
    Aproveite o Cifra Club com benefícios exclusivos e sem anúncios
    OK