Enviar cifraEntrar

Zzyxz Rd.

Stone Sour

Tab de baixo: Principal
exibições 1.873
Afinação » 1/2 abaixo

Intro
Gb|--------------------------------------|
Db|--------------------------------------|
Ab|3~------------------------------------|2x
Eb|---------5~--------1~--------3~-------|

Verse 1
Gb|--------------------------------------|
Db|--------------------------------------|
Ab|3~-------------------------3~---------|3x
Eb|---------5~-------1~------------3~----|

|--------------------------------------|
|--------------------------------------|
|3~---------------------------3~-------|
|---------5~--------1~---3~------------|

Chorus 1
Gb|------------------------------------|------------------------------|
Db|------------------------------------|------------------------------|
Ab|------------------3~----------------|------------------3~----------|
Eb|5~-------1~----------------3~-------|5~-------1~------------3~-----|

bass normally comes in here at 1:34
G|--------------------------------------|---------------------------------|
D|--------------------------------------|---------------------------------|
A|3~---33~---------------------------353|3~---33~-------------------------|
E|----------5~---55\1~---11/3~---3h5----|----------5~---55\1~---11/3~---3x|

Verse 2
Gb|-------------------------------------|
Db|-------------------------------------|
Ab|3~-------------------------3~--------|3x
Eb|---------5~-------1~------------3~---|

|-----------------------------------|
|-----------------------------------|
|3~------------------------3333h5/7\|
|---------5~-------1~---3~----------|

Chorus 2
Gb|-------------------------------------------|
Db|-------------------------------------------|
Ab|-------------------------3~---33-3~--------|
Eb|5~---55-55\1~---11-1~-----------------3~---|

|-----------------------------------|
|-----------------------------------|
|-------------------------3~--------|
|5~---55-55\1~---11-1~---------3~---|

Guitar Solo
Gb|-----------------------------------------------|
Db|-----------------------------------------------|
Ab|3333-33-3~----------------------------------353|
Eb|------------5555-55-5~--1111-11-1~--33333h5----|

|-------------------------------------|
|-------------------------------------|
|333333/5\----------------------------|
|----------555555/7\3~--------11111111|

End
Gb|----------------------------------------|
Db|----------------------------------------|
Ab|7~--7~----7~--7~----3~--3~----5~--5~----|4x
Eb|----------------------------------------|

|----------------------------------------|
|----------------------------------------|
|7~--------7~--------3~--------5~--------|2x
|----7~--------7~--------3~--------5~----|

|------------------------------------------|
|------------------------------------------|
|7~--------7~--------3~--3~----5~--5~----7~|
|----7~--------7~--------------------------|
  • 1
  • 2
  • 3
  • 4
  • 5
  • 6
  • 7
  • 8
  • 9
  • 10
  • 11
  • 12
    Colaboração e revisão:
    • Bruno Balberith

    0 comentários

      mostrar mais comentários

      Conseguiu tocar?

      0tocaram0ainda não

      Grave um vídeo tocando Zzyxz Rd. e mande pra gente!

      00:00 / 00:00
      outros vídeos desta música
      repetirqualidadeautomática
      • automática
      Outro vídeos desta música
        00:00 / 00:00
        automática
        • automática
        Acordes para:violão e guitarra
        dificuldadeexibiçõescontribuições
        1 versão de Tab de baixoexibiçõescontribuições
        1 versão de Guitar Proformatodownloadscontribuição
        fecharplay/pause subir/descer velocidade
        fechar
        OK