Cifra Club

And So I Know

Stone Temple Pilots

Tab de baixo: Principal
Album:  Tiny Music...

Tab by Christian Brosche (*)

Normal tuning  (EADG)

Verse

G|--------------------------------------------|
D|----------------------------------5--4------|
A|------2-----7--6------------2-5---------5---|
E|--2/4---0---------7-----2/4-----------------|

Chorus 1

G|------------------------------------------------------------------|
D|--------------------------------------2-4-5-----------------------|
A|-----4--7--------4--7--------3-3-3--3-------2-3-2-----7/9-7-6-----|
E|--5--------5--5--------5--5-----------------------------------7---|

Chorus 2

G|-----------------------------------------------------|
D|--------------------------------------2-4-5----------|
A|-----4--7--------4--7--------3-3-3--3-------2-3-2----|
E|--5--------5--5--------5--5--------------------------|

Chorus 2 (contd)

G|-----------------------------------------------------|
D|----3------------------------------------------------|
A|--4---4-4----1-4----1-4--------------4---------------|
E|-----------2-----2------2--2--4-5-5----7-7---2-0-----|

Guitar Solo 
Is the same verse (only one variation).

G|-----------------------------------------------------|
D|--------------------6/7\6-------------5--4-----------|
A|------2-----7--6---------7/9\7/9\7----------5--------|
E|--2/4---0---------7----------------------------------|


Song Path: 

Verse    (x4)
Chorus 1 (x1)
Verse    (x3)  
Chorus 1 (x1)
Verse    (x2) 
Chorus 2 (x1)
Solo     (x4)
Chorus 2 (x1)
Verse    (x5)  
That's it!
exibições 1.316

0 comentários

mostrar mais comentários

Conseguiu tocar?

0 tocaram 0 ainda não

Grave um vídeo tocando And So I Know e mande pra gente!

00:00 / 00:00
outros vídeos desta música
repetir qualidade Automático
Outros vídeos desta música
00:00 / 00:00
Automático
OK