Cifra Club

Art School Girl

Stone Temple Pilots

Tab de baixo: Principal
Album: Tiny Music...
Bassist: Robert Del Leo
Tabbed by: Ledzeplica

h = hammer on

Here's the verse riff..
G|-------------------9----9--9h11--
D|-------9-9---11-11---11----------
A|-9---9---------------------------
E|---------------------------------

G|-------------------9----9-8------
D|-------9-9---11-11---11-----9----
A|-9---9---------------------------
E|---------------------------------


Chorus riff..
G|-----------------
D|-----------------
A|-----------------
E|-2-2-2-5---0-2-0-


Then theres one little change that goes like this..
G|-7-------------
D|--------9------
A|---------------
E|---------------
Go back and forth between that and the chorus riff.


Play the chorus riff during the guitar solo.
At the end of the guitar solo, play this..
G|--------
D|--------
A|---6-7--
E|-7------

Then go back into the verse, then the chorus.


Then the song ends and its over.. later.

L*
exibições 262

0 comentários

mostrar mais comentários

Conseguiu tocar?

0 tocaram 0 ainda não

Grave um vídeo tocando Art School Girl e mande pra gente!

00:00 / 00:00
outros vídeos desta música
repetir qualidade Automático
Outros vídeos desta música
00:00 / 00:00
Automático
OK