Big Bang Baby

Stone Temple Pilots

Composição: Robert DeLeo / Scott Weiland
Tom: E

Tabbed by StonedRocker (*)
this is my first tab, hope it doesnt suck.
 

Standard Tuning 



 4/4
  Gtr I
  
|---------------------------------------|
|---------------------------------------|
|--------------7-6-5-5------------------|
|-2-2--5-6-7-7-7-6-5-5-9-8-7-7-9-8------|
|-2-2--5-6-7-7-5-4-3-3-9-8-7-7-9-8------|
|-0-0--3-4-5-5---------7-6-5-5-7-6------|


  
|------------------------------------------------------------|
|------------------------------------------------------------|
|-5---5-5-5---5-5---7-7-7---7--------------------------------|
|-5---5-5-5---5-5---7-7-7---7---2---2-2---2---2-2-2-2-2------|
|-3---3-3-3---3-3---5-5-5---5---2---2-2---2---2-2-2-2-2------|
|-------------------------------0---0-0---0---0-0-0-0-0------|


 
|-------------------------------------------------------------------------|
|-------------------------------------------------------------------------|
|-9---9-9-9-5---5-5-5---5-5---9---9-9-9-5---5-5-5---5-5---14---14-14-14---|
|-9---9-9-9-5---5-5-5---5-5---9---9-9-9-5---5-5-5---5-5---14---14-14-14---|
|-7---7-7-7-3---3-3-3---3-3---7---7-7-7-3---3-3-3---3-3---12---12-12-12---|
|-------------------------------------------------------------------------|


 
|----------------------------|
|----------------------------|
|----------------------------|
|-12---12-12---10---10-10----|
|-12---12-12---10---10-10----|
|-10---10-10----8----8--8----|

--------------------------------------------------------------------------------

** Generated using Power Tab Editor by Brad Larsen: The Official Power Tab Web Site
Página 1 / 1

Letras e título
Acordes e artista

resetar configurações
OK