Cifra Club

Aprenda

Creep

Stone Temple Pilots

Tab de baixo: Principal
transcribed by Travis Higgins

*

http://*~travis/*



                                

|--------------------|-----------------------------|--------------------|-

|--------------------|-----------------------------|--------------------|-

|--3-----3--2--2--2--|-----------------------5--7--|-----------------2--|-

|--------------------|--0-----0--0--0-----7--------|--0-----0--0--------|-

                                



                                1st and 2nd verses

---------------|-----------||----------------------|-

---------------|-----------||*---------------------|-

3-----3--2-----|-----------||*------------------2--|-

---------------|--0--------||----0-----0--0--------|-

                      



        (repeat 4 times)

-------------------||--------------------------|-

------------------*||--------------------------|-

3-----3--2--2--2--*||--------------------5--7--|-

-------------------||--0-----0--0-----7--------|-

                                



                                   Pre-chorus (Take time...)

------------------------------||------------------------------|-

------------------------------||*-----------------------------|-

------------------------------||*-----------------------------|-

0-----0-----0--0-----0--0--2--||----3--3-----3-----5--5--5--5\|-

              



              

----------------------------||-----------------------------|-

---------------------------*||-----------------------------|-

---------------------------*||-----------------------------|-

0-----0--0--0-----0--0--2---||--3--3-----3-----5--5--5--5--|-

            



                          Chorus  

---------------------||----------------------------------|-

---------------------||*---------------------------0--2--|-

3-----3--3--5--5--5--||*---------------------0--2--------|-

---------------------||----0--0--2--2--3--3--------------|-

                  



               

----------------------------||--------------------------------|-

---------------------------*||--------------------------------|-

------------------0--1--2--*||--------------------------5--7--|-

0--0--2-----3--3------------||--0-----0-----0--0-----7--------|-

              



 

--------------------------------------||

---------14--13------12\11------9--8--||

-----------------14---------12--------||

0-----0-------------------------------||

        



Then you go back and play the 2nd verse and so on.

Then there is the little pause and thats about it.





After the pause, at the end of the third pre-chorus hs plays

bass fill 1



 bass fill 1  

------------------------------|

------------2--------5--4-----|

---3-----3-----3--5--------5--|

------3-----------------------|





=========================================================================

==          Created with a shareware version of the BUCKET 'O TAB      ==

==                 tablature creation software for Windows             ==

==                          For more information:                      ==

==                         email: *                    ==

==     US Mail: The Bucket, 3176-B5 Summit Square Dr., Oakton, VA 22124==

=========================================================================

Composição de Robert DeLeo / Scott Weiland
3.398 exibições

0 comentários

Mostrar mais comentários
00:00 / 00:00
outros vídeos desta música
repetir qualidade Automático
Outros vídeos desta música
00:00 / 00:00
Automático
OK