Cifra Club

No Way Out

Stone Temple Pilots

Tab de baixo: Principal
Bassist: Robert DeLEo

This song is pretty easy.

It's played in Drop C so its kinda low.


the intro is one note per measure (that would be a whole not guys)
G : -------------------------------------------------------------|
D : -------------------------------------------------------------|
A : -------------------------------------------------------------|
C : ---------4------------------3--------------------------------|


Riff 1, Chorus
G : -------------------------------------------------------------|
D : -------------------------------------------------------------|
A : -------------------------------------------------------------|
C : ---------0--0--3---------------3-----------------------------|

Verse:
G : -------------------------------------------------------------|
D : -------------------------------------------------------------|
A : -------------------------------------------------------------|
C : ---------0-----0--0--3-0--0----------------------------------|

"hey now mother...." (Bridge)
G : -------------------------------------------------------------|
D : -------------------------------------------------------------|
A : -------------------------------------------------------------|
C : ----------5-3-3---5-3-5-3---5-3-3---5-3-3-5-3----------------|

That's it.  Pretty easy.

Here's the layout of the song.

Intro: 4 times
Riff 1: 4 times
Verse: 8 times
Chorus: 4 times
Verse: 8 times
Bridge: 2 times
Verse: 4 times
Chorus: 4 times
Intro: 4 times
Bridge: 2 times
Intro: 2 times
Chorus: 4 times
Verse: 8 times
Then the song fades out but the bridge is played about 12 times before the
songs fades out.

I know it's long, but it's fun to play.
exibições 623

0 comentários

mostrar mais comentários

Conseguiu tocar?

0 tocaram 0 ainda não

Grave um vídeo tocando No Way Out e mande pra gente!

00:00 / 00:00
outros vídeos desta música
repetir qualidade Automático
Outros vídeos desta música
00:00 / 00:00
Automático
OK