Cifra Club

Aprenda

Ride The Cliché

Stone Temple Pilots

Tab de baixo: Principal
Album: Tiny Music...Songs From the Vatican Gift Shop
Bass: Robert DeLeo

Tabbed by Ryan Hammond (*)
December 08, 2006


This is probably not 100% accurate, but I feel it is a great start.. Email me for comments/suggestions..


/ = slide toward
h = hammer-on
p = pull-off
H = hold/bend/ring


INTRO: (0:00)
G------------------------------------------------------------------------------------------------|
D------------------------------------------------------------------------------------------------|
A------------------------------------------------------------------------------------------------|
E----3-3--0-3-3--3-3-3---3-3--0-3--3-3-3---------------------------------------------------------|

PRE-VERSE/VERSE: (0:06; 1:00)
G------------------------------------------------------------------------------------------------|
D----------2-------------------------------------------------------------------------------------|
A----0-4-5---5-4-5-5-4p2p0-----------------------------------------------------------------------|
E--------------------------3---3/5-5---0-0-3--0-3-0-3--0-3-3-0-----------------------------------|

CHORUS: (0:36; 1:24)
G------------------------------------------------------------------------------------------------|
D---------------7---/7-7-7H-------------------------7-7------------------------------------------|
A----0-0-0H---9---9-----------/9-10-11-12-0-0-0H--7-----3/5--------------------------------------|
E------------------------------------------------------------0-3-3--0-3-3--0-3-3-----------------|

G------------------------------------------------------------------------------------------------|
D---------------7---/7-7-7H-------------------------7-7------------------------------------------|
A----0-0-0H---9---9------------9-10-11-12-0-0-0H--7-----3/5--------------------------------------|
E------------------------------------------------------------0-1-1--0-1-1--0-1-1-----------------|

GUITAR SOLO x4: (1:47)
G------------------------------------------------------------------------------------------------|
D----------2-------------------------------------------------------------------------------------|
A----0-4-5---5-4-5-5-4p2p0-----------------------------------------------------------------------|
E--------------------------3---3/5-5---0-0-3--0-3-0-3--0-3-3-0-----------------------------------|

BRIDGE: (2:10)
G----------2-------------------------------------------------------------------------------------|
D----0-4-5---5-4-5----------------10-----10--10--10--10H------10-10------------------------------|
A------------------0-2-0-2-3--/10------10--10------10-------10------10-10------------------------|
E----------------------------------------------------------------------------0-1-1--0-1-1--0-1-1-|

G------------------------------------------------------------------------------------------------|
D---------------7---/7-7-7H-------------------------7-7------------------------------------------|
A----0-0-0H---9---9-----------/9-10-11-12-0-0-0H--7-----3/5--------------------------------------|
E------------------------------------------------------------0-3-3--0-3-3--0-3-3-----------------|

G------------------------------------------------------------------------------------------------|
D---------------7---/7-7-7H-------------------------7-7------------------------------------------|
A----0-0-0H---9---9------------9-10-11-12-0-0-0H--7-----3/5--------------------------------------|
E------------------------------------------------------------0-1-1--0-1-1--0-1-1-----------------|

LAST CHORUS: (2:46)

G------------------------------------------------------------------------------------------------|
D---------------7---/7-7-7H-------------------------7-7------------------------------------------|
A----0-0-0H---9---9-----------/9-10-11-12-0-0-0H--7-----3/5--------------------------------------|
E------------------------------------------------------------0-3-3--0-3-3--0-3-3-----------------|

G------------------------------------------------------------------------------------------------|
D---------------7---/7-7-7H-------------------------7-7------------------------------------------|
A----0-0-0H---9---9------------9-10-11-12-0-0-0H--7-----3/5--------------------------------------|
E------------------------------------------------------------0-1-1--0-1-1--0-1-1--0-1-1--0-1-1---|
Composição de Dean DeLeo / Robert DeLeo / Scott Weiland
176 exibições

0 comentários

Mostrar mais comentários

Conseguiu tocar?

0 Tocaram 0 Ainda não

Grave um vídeo tocando Ride The Cliché e mande pra gente!

00:00 / 00:00
outros vídeos desta música
repetir qualidade Automático
Outros vídeos desta música
00:00 / 00:00
Automático

Cifra Club Pro

Aproveite o Cifra Club com benefícios exclusivos e sem anúncios
7 dias grátis
Cifra Club Pro
Aproveite o Cifra Club com benefícios exclusivos e sem anúncios
7 dias grátis
OK