Cifra Club

Aprenda

Sex Type Thing

Stone Temple Pilots

Tab de baixo: Principal
Main Riff
|-------------------------|-------------------------|
|-------------------------|-------------------------|
|-------------------------|-------------------------|
|--0--7--7--0--6----0--5--|-----0--3----3--5--3--0--|

Verse
|--------------------------|-----------------------|
|--------------------------|-----------------------|
|--------------------------|-----------------------|
|--0--2--2--0--2--x--x--x--|--x--0--2--2--0--2--x--|


Chorus
|--------------------------|-------------------------|
|--------------0--0--------|----------0--0-----------|
|--2--2--0-----------0--2--|--2--0-------------0--2--|
|-----------3--------------|--------3-------2--------|

|-----------------------|-------------------|
|----------0--0---------|----------0--0-----|
|--2--0----------0--2---|--2--0----------0--|
|--------3--------------|--------3----------|

Bridge
|--------------------------|--------------------------|
|--------------------------|--------------------------|
|--7--7--7--5--5--5--------|--------------------------|
|--------------------7--7--|--7--6--6--6--5--5--3--3--|

|--------------------------|--------------------------|
|--------------------------|--------------------------|
|-----7--7-----7--7--5--7--|--7-----7--7--5--7--7--7--|
|--0--------0--------------|-----0--------------------|

Ending
|-----------------|
|-----------------|
|--7--7--7--7--7--|
|-----------------|

Main   x4
Verse  x4
Main   x4
Verse  x4
Chorus x1
Main   x4
Verse  x4
Chorus x1
Bridge x2
Verse  x4
Chorus x2
Bridge x2
Main   x8
Ending x1
Composição de Dean DeLeo / Eric Kretz / Scott Weiland
Colaboração e revisão:
  • Gabriel Leite
1.744 exibições

0 comentários

Ver todos os comentários

Conseguiu tocar?

2 Tocaram 0 Ainda não

Grave um vídeo tocando Sex Type Thing e nos envie!

00:00 / 00:00
Outros vídeos desta música
Repetir Qualidade Automático
Outros vídeos desta música
00:00 / 00:00
Automático

Cifra Club Pro

Aproveite o Cifra Club com benefícios exclusivos e sem anúncios
Cifra Club Pro
Aproveite o Cifra Club com benefícios exclusivos e sem anúncios
OK