Cifra Club

Still Remains

Stone Temple Pilots

Tab de baixo: Principal
Tabbed by Matt Marchain (DirectR*)

DeLeo as always has a lot of improv, so go wild.

Intro
G|-----------------------------------------------------------|----------|
D|o---------------------------------------------------------o|----------|
A|o--------------------------5---------------------------5--o|----4-----|
E|--4/5-5-5-5----5-4/5-5-5-5---5-4/5-5-5-5---5-4/5-5-5-5---5-|--5---3---|


Verses
G|---------------------------------------------------------|
D|---------------------------------------------------------|
A|--------------------------5------------------------------|
E|--4/5-5-5-5---5-4/5-5-5-5---5-4/5-5-5-5---5-4/5-5-5-5-5--| and so on...

Pre-Chorus
G|----------------------------|
D|--------------7--7---7------|
A|---------5-7-------7---7-5--|
E|--5-5--5--------------------|

Chorus (whole lotta improv)
G|------------------------------------------------|
D|---------3-3-------3----------------------------|
A|-------------3-3-3---3----------5---------------|
E|--1-1--1-----------------3--3------3-3---3/-5---| 
exibições 276

0 comentários

mostrar mais comentários

Conseguiu tocar?

0 tocaram 0 ainda não

Grave um vídeo tocando Still Remains e mande pra gente!

00:00 / 00:00
outros vídeos desta música
repetir qualidade Automático
Outros vídeos desta música
00:00 / 00:00
Automático
OK