Cifra Club

Trippin' On a Hole In a Paper Heart

Stone Temple Pilots

Tab de baixo: Principal
Intro
G|--------------|
D|--------------|
A|-0~-----------|
E|--------------|

Verse
G|-----------------------------------------------------------|
D|-----------------------------------------------------------|
A|-----------------------------------------------------------|
E|-0-2-2-2--0-0-2-2-2--0-2-2-0---0-2-2-2--0-0-2-2-2--0-2-2-0-|   \
                                                                  |x2
G|-----------------------------------------------------------|   /
D|-----------------------------------------------------------|
A|-----0-0-4-0-6-0---0-7-0-6-0-------0-0-4-0-6-0---0-7-0-6-0-|
E|-4/5-------------------------0-4/5-------------------------|

Pre-Chorus
G|-----------------------------------------------------------|
D|-----------------------------------------------------------|
A|-----------------------------------------------------------|
E|-0-2-2-2--0-0-2-2-2--0-2-2-0---0-2-2-2--0-0-2-2-2--0-2-2-0-|

G|-----------------------------------------------------------|
D|-------------------------------------0-5~5~--5-0-5-5-5-0---|
A|-----------------------------------2----------------------0|
E|5~5---5~-0-5--4~4--4-0-4-4-3~-3--3----------------------3--|

1st Chorus
G|--------------------------------------------------|
D|--------------------------------------------------|
A|-2--2--2--202--2--2--202--2--2--2--202224-05~--5-5|
E|--------------------------------------------------|

G|-----------------------6-67-----------------------------------|
D|----------------7-7979---------------------------------------2|
A|-077090-10~10---------------2--2--2--202--2--2--0000000000024-|
E|--------------------------------------------------------------|

-= Repeat Verse and Pre-Chorus =-

2nd Chorus
G|--------------------------------------------------|
D|--------------------------------------------------|
A|-2--2--2--202--2--2--202--2--2--2--202224-05~--5-5|
E|--------------------------------------------------|

G|-----------------------6-67-|
D|----------------7-7979------|
A|-077090-10~10---------------|
E|----------------------------|

G|------------------------------------------------------------------------|
D|---------------------------------------------------0-5~5~--5-0-5-5-5-0--|
A|-2--2--2--202--2--2--202--2--2--2--202220-0-------2--------------------0|
E|-------------------------------------------3~-3-3---------------------3-|

G|--------------------------------------------------|
D|--------------------------------------------------|
A|-2--2--2--202--2--2--202--2--2--2--202224-05~--5-5|
E|--------------------------------------------------|

G|-----------------------6-67-----------------------------------|
D|----------------7-7979---------------------------------------2|
A|-077090-10~10---------------2--2--2--202--2--2--0000000000024-|
E|--------------------------------------------------------------|
exibições 1.349
Composição: Eric Kretz / Scott Weiland Colaboração e revisão:
  • Lucas Miranda

0 comentários

mostrar mais comentários

Conseguiu tocar?

1 tocaram 0 ainda não

Grave um vídeo tocando Trippin' On a Hole In a Paper Heart e mande pra gente!

00:00 / 00:00
outros vídeos desta música
repetir qualidade Automático
Outros vídeos desta música
00:00 / 00:00
Automático
OK