Cifra Club

Tumble In The Rough

Stone Temple Pilots

Tab de baixo: Principal
Tumble in the Rough
Tiny Music... Songs From the Vatican Gift Shop

bass tab
transcribed by Joe M. (*)

INTRO
G:---------------------------------------------------------|
D:----------5-5-5/8-8-8----5-5-5-5/8-8-8----5-5-5-5/8-8-8--|
A:---------------------------------------------------------|
E:---------------------------------------------------------|

G:-----------------------|
D:--5-5-5-5/8-8-8----12\-|
A:-----------------------|
E:-----------------------|

VERSE 1 & 2
G:------------------------------------------------------------|
D:------------------------------------------------------------|
A:------------------------------------------------------------|
E:-3-3-3-3-3--3-3-3--3-3-3--3-3-3--3-3-3--3-3-3--3-3-3--3-3-3-|

G:-------------------------------------------------------|
D:-----------------------------------------------------3-|
A:---------------------------------------------1-3/(5)---|
E:-3-3-3--3-3-3--3-3-3--3-3-3--3-3-3--3-3-3--3-----------|

G:----------------------------------------------------------------------|
D:-5-5-5/8-8-8----5-5-5-5/8-8-8----5-5-5-5/8-8-8----5-5-5-5/8-8-8----8\-|
A:----------------------------------------------------------------------|
E:----------------------------------------------------------------------|

CHORUS
G:--------------------------------------------------------------------|
D:------------------------------------------------------------------3-|
A:--1-0-1-0-1-0-0-1-1-0-1-1-1-0-1-2-3-3-3-3-3-3-3-3-3-3-3-3-3-3/(5)---|
E:--------------------------------------------------------------------|

G:-----------------------------------------------------------------------|
D:-5-5-5/8-8-8----5-5-5-5/8-8-8----5-5-5-5/8-8-8----5-5-5-5/8-8-8----12\-|
A:-----------------------------------------------------------------------|
E:-----------------------------------------------------------------------|

BRIDGE (after Chorus 2)
this part covers 8 measures, and there are basically 4 parts to the bridge,
I included the lines to help distinguish the 4 different parts
G:-------------------------------|------------------------------|
D:-------------------------------|------------------------------|
A:-------1-------1------3--3-1---|------1-------1-------3--3-1--|
E:--3--3---1-0-1---0--3--------2-|-3--3---1-0-1---0-0-3---------|

G:--------------------------------|-----------------------------|
D:--------------------------------|-----------------------------|
A:-------1-------1-------3--3-1---|------1-------1-----3--3-1/--|
E:--3--3---1-0-1---0-0-3--------2-|-3--3---1-0-1---0-3----------|

VERSE 3 (after guitar solo)
G:------------------------------------------------------------|
D:------------------------------------------------------------|
A:------------------------------------------------------------|
E:-3-3-3-3-3--3-3-3--3-3-3--3-3-3--3-3-3--3-3-3--3-3-3--3-3-3-|

G:-------------------------------------------------------|
D:-------------------------------------------------------|
A:----------------------------------------------------0--|
E:--3-3-3--3-3-3--3-3-3--3-3-3--3-3-3--3-3-3--3-3-3-3----|

G:--------------------------------------------------------------|
D:--------------------------------------------------------------|
A:--1-1-1-1-1-1-0-1-1-0-1---1-0-1---3-3-3-3-3-3-3-3-3-3-3-3-3-3-|
E:------------------------3-------3-----------------------------|

G:------------------------------------------------------------------------|
D:---------------------------------------------------------------------3--|
A:-2-2-1-1-1-1-1-1-0-0-1-0-1-1-1---1---3-3-3-3-3-3-3-3-3-3-3-3-3-3/(5)----|
E:-------------------------------3---3------------------------------------|

OUTRO
G:-----------------------------------------------------------------------|
D:-5-5-5/8-8-8----5-5-5-5/8-8-8----5-5-5-5/8-8-8----5-5-5-5/8-8-8--------|
A:-----------------------------------------------------------------------|
E:-----------------------------------------------------------------------|

The bass during the guitar solo is the same as the end of the chorus.
exibições 408
Composição: Scott Weiland

0 comentários

mostrar mais comentários

Conseguiu tocar?

0 tocaram 0 ainda não

Grave um vídeo tocando Tumble In The Rough e mande pra gente!

00:00 / 00:00
outros vídeos desta música
repetir qualidade Automático
Outros vídeos desta música
00:00 / 00:00
Automático
OK