Cifra Club

Aprenda

What You do To Me

Straight Line Stitch

Cifra: Principal (violão e guitarra)
tom: G
Verso:
E|-----------------------------------------|
B|-----------------------------------------|
G|-----------------------------------------|   (4x)
D|--99999999--33333333--55555555--77777777-| 
A|--99999999--33333333--55555555--55555555-|
D|--99999999--33333333--55555555-----------|

E|-------------------------------------------------------------------------|
B|-------------------------------------------------------------------------|
G|-------------------------------------------------------------------------|
D|--9999999999999999--3333333333333333--5555555555555555--7777777777777777-|
A|--9999999999999999--3333333333333333--5555555555555555--5555555555555555-|
D|--9999999999999999--3333333333333333--5555555555555555-------------------|

Refrão:
E|-----------------------------------------|
B|-----------------------------------------|
G|-----------------------------------------|   (4x)
D|--99999999--33333333--55555555--77777777-|
A|--99999999--33333333--55555555--55555555-|
D|--99999999--33333333--55555555-----------|

Verso:
E|-----------------------------------------|
B|-----------------------------------------|
G|-----------------------------------------|   (4x)
D|--99999999--33333333--55555555--77777777-|
A|--99999999--33333333--55555555--55555555-|
D|--99999999--33333333--55555555-----------|

E|-------------------------------------------------------------------------|
B|-------------------------------------------------------------------------|
G|-------------------------------------------------------------------------|
D|--9999999999999999--3333333333333333--5555555555555555--7777777777777777-|
A|--9999999999999999--3333333333333333--5555555555555555--5555555555555555-|
D|--9999999999999999--3333333333333333--5555555555555555-------------------|

Refrão:
E|-----------------------------------------|
B|-----------------------------------------|
G|-----------------------------------------|   (4x)
D|--99999999--33333333--55555555--77777777-|
A|--99999999--33333333--55555555--55555555-|
D|--99999999--33333333--55555555-----------|

Ponte:
E|--------------------------|
B|--------------------------|
G|--------------------------|   (2x)
D|--9------------3333-5555--|
A|--9-(ring out)-3333-5555--|
D|--9------------3333-5555--|

E|--------------------------|
B|--------------------------|
G|--------------------------|   (4x)
D|-10----9----10-----9------|
A|-10-x8-9-x8-10-x8--9-x8---|
D|-10----9----10-----9----9-|

E|-------------|-----------|
B|-------------|-----------|
G|-------------|-----------|
D|--9--3--5--0-|--9--3--5--|
A|--9--3--5--0-|--9--3--5--|
D|--9--3--5--0-|--9--3--5--|

E|-----------------------------------------|
B|-----------------------------------------|
G|-----------------------------------------|
D|--99999999--33333333--55555555--77777777-|
A|--99999999--33333333--55555555--55555555-|
D|--99999999--33333333--55555555-----------|

Refrão:
E|-----------------------------------------|
B|-----------------------------------------|
G|-----------------------------------------|   (8x)
D|--99999999--33333333--55555555--77777777-|
A|--99999999--33333333--55555555--55555555-|
D|--99999999--33333333--55555555-----------|

Outro:
E|--------------------------|
B|--------------------------|
G|--------------------------|   (2x)
D|--9------------3333-5555--|
A|--9-(ring out)-3333-5555--|
D|--9------------3333-5555--|
Composição de Alexis Brown / Patrick Haynes / Rob Caggiano / Seth Thacker
Colaboração e revisão:
  • luana oliveira
337 exibições
    • ½ Tom
    • A
    • Bb
    • B
    • C
    • Db
    • D
    • Eb
    • E
    • F
    • F#
    • G
    • Ab
  • Adicionar à lista

    0 comentários

    Ver todos os comentários

    Conseguiu tocar?

    0 Tocaram 0 Ainda não

    Grave um vídeo tocando What You do To Me e nos envie!

    00:00 / 00:00
    outros vídeos desta música
    repetir qualidade Automático
    Outros vídeos desta música
    00:00 / 00:00
    Automático

    Cifra Club Pro

    Aproveite o Cifra Club com benefícios exclusivos e sem anúncios
    Cifra Club Pro
    Aproveite o Cifra Club com benefícios exclusivos e sem anúncios
    OK