Cifra Club

Bass Solo

Stu Hamm

Tab de baixo: Principal
From "Live in San Fran. with Joe Satriani"

G|-11--------13-13--11-11-------|
D|-14-14-13--11-11---9--9-------|
A|-14-14-14--12-----11----11----|
E|---------0------0---------0-0-| x3

G|---9-8-6--6--4--4--4--9-8-6--6-----13----13--14--16--21-20-18-16-16-------------
D|---9-9-7-7---6--6--6--9-9-7-7--7+14----14--14--14----18----19-18-16h18-18-18-18-
A|-------0-----7------------0--------------------------16-----0-------------------
E|-9------------0--0--9-----------------0---------------------------0-------------

G|-16----------21----20-21----20------20-21--------------21-
D|-16h18-16-14----18-------19------19---------18----18-21---
A|-------------16--------0-------0---------------19---------
E|------------------------------------------0---------------

G|-9-9-8-4-6++14---11h12p11-------------------9-9-----9----9-9-11-13-14p13-11----16-
D|-9------------------------9-7-6-6---7---9----9-9+11------9-9--9-11----------14----
A|----------0----0----------------7---7---7------------------------0----------------
E|-9--------------------------------0---0---0------------9--------------------------

G|------16------16---16------16------16---16------16-----16--16-----16-----16--16-
D|---14------14-----------14------14-----------14-----14---------14-----14--------
A|---------------------16------16------16----0------0------0----------------------
E|-0-------0-------0-------------------------------------------0------0------0----

G|------16-----16--16------16------16---16-----16-----18----16-----16-----18----16-
D|---14-----14----------14------14----------14-----14----14-----14-----14----14----
A|-------------------16------16------16---0------0---------------------------------
E|-0------0------0--------------------------------------------0------0-------------

G|------16--16+21------21------21---21-----21-----21------------21-----21--21-
D|---14-------------18------18----------19-----19-----19h21--21-----21--------
A|---------------16------16------16---0------0------0-------------------------
E|-0------0------------------------------------------------0------0------0----

G|------21-----21--21------21------21---21-----21-----21------------21-----21-----21-
D|---21-----21----------18------18----------19-----19-----19h21--21-----21-----21----
A|-------------------16------16------16---0------0------0----------------------------
E|-0------0------0---------------------------------------------0------0------0-------

G|------21-----------------21---||
D|---21------------21-----------||
A|------------------------------||
E|-0---------0------------------||
00:00 / 00:00
Outros vídeos desta música
Repetir
Outros vídeos desta música
Compositor não encontrado.
Colaboração e revisão:
  • Lucas Costa
1.288 exibições

0 comentários

Ver todos os comentários

Conseguiu tocar?

0 Tocaram 0 Ainda não

Grave um vídeo tocando Bass Solo e nos envie!

Entre para oCifra Club PRO

Tenha acesso a benefícios exclusivos no App e no Site

  • Chega de anúncios

  • Prioridade de compra em lançamentos

  • Mais recursos no app do Afinador

  • Atendimento Prioritário

  • Descontos nos produtos Cifra Club

  • Ajude a produzir mais conteúdo

00:00 / 00:00

Cifra Club Pro

Aproveite o Cifra Club com benefícios exclusivos e sem anúncios
Cifra Club Pro
Aproveite o Cifra Club com benefícios exclusivos e sem anúncios
OK