Please Forgive Me

Student Rick

Composição de: Student Rick
tom: F#
Album : Soundtrack for a Generation ('2001)


i got most of this from *, but made a few changes to some
of the mistakes. mad props to Jim Hillis 3. good job.

The two guitars on this TAB are separated into what each guitarist plays
rather than lead and rhythm. One is the right side of the recording and one
is the left (listen to it on head phones to hear the separation) 

Key: 
* - Palm mute that chord/note 
/ - Slide from the note in front to the note afterwards 
X - Mute the strings, stop sound before next note. 

Guitar One 
========== 
Intro: 
e|--9-9-9-8-8-8------------|          e|---11-9-8-8-8h9-9-8---| 
B|--------------9-9--------| < Play 3 B|----------------------| < Play once 
G|-------------------------| times    G|----------------------| after the 
D|-------------------------|          D|----------------------| first part 
A|-------------------------|          A|----------------------| 
E|-------------------------|          E|----------------------| 
* Repeat all of the above 

Verse One: 
* * * * * * * * * * * * * * * * * * * * * * * * * * * * * * * * -----| < Play 1 
A|-4---4---4---4---3---3---3---3---8---8---8---8---4---4---4->-----| time 
E|---------------------------------6---6---6---6---2---2---2->-----| 

Pre-Verse: 
e|-------------------------| e|-------------------------| 
B|-14-14-14-13-13-13-------| < Play 8 B|-16-14-13-13-13h14>13-13-| < Play 1 
G|-------------------13-13-| times G|-------------------------| time 
D|-------------------------| D|-------------------------| 
A|-------------------------| A|-------------------------| 
E|-------------------------| E|-------------------------| 

Verse Two: 
* * * * * * * * * * * * * * * * * * * * * * * * * * * * * * * * --4->--3->--------------------6->--4->--3->--6>--| < Play 2 
A|-4->-----------------------6->---4->----------------------------| times 
E|----------------------------------------------------------------| 
* This part is real quiet underneath the other guitar playing the palm 
muted chords but it IS there, just listen carefully. 

Pre-Chorus Two: 
e|-------------------------------------------------| 
B|-------------------------------------------------| 
G|10-10-10-10-10-10-10-10--------10-10-10/11-11-11-| 
D|10-10-10-10-10-10-10-10-8-8-8-8-x--x--x/-x--x--x-| < Play 1 time 
A|-8--8--8--8--8--8--8--8-8-8-8-8-8--8--8/-9--9--9-| 
E|------------------------6-6-6-6------------------| 

e|---------------------------------------------------| 
B|---------------------------------------------------| 
G|10-10-10-10-10-10-10-10--------10-10-10-X-11-11-11-| 
D|10-10-10-10-10-10-10-10-8-8-8-8-x--x--x-X--x--x--x-| < Play 1 time 
A|-8--8--8--8--8--8--8--8-8-8-8-8-8--8--8-X--9--9--9-| 
E|------------------------6-6-6-6--------------------| 

Chorus Two: 
e|-----------------------------------------------------------------| 
B|-----------------------------------------------------------------| 
G|-6-6-6-6-6-6-6-6-5-5-5-5-5-5-5-5---------------------------------| 
D|-6-6-6-6-6-6-6-6-6-6-6-6-6-6-6-6-8-8-8-8-8-8-8-8-4-4-4-4-4-4-4-4-| < Play 1 
A|-4-4-4-4-4-4-4-4-3-3-3-3-3-3-3-3-8-8-8-8-8-8-8-8-4-4-4-4-4-4-4-4-| time 
E|---------------------------------6-6-6-6-6-6-6-6-2-2-2-2-2-2-2-2-| 

e|-----------------------------------------------------------------| 
B|-----------------------------------------------------------------| 
G|-6-6-6-6-6-6-6-6-5-5-5-5-5-5-5-5---------------------------------| 
D|-6-6-6-6-6-6-6-6-6-6-6-6-6-6-6-6-8-8-8-8-8-8-8-8-4-4-4-4-4-------| < Play 1 
A|-4-4-4-4-4-4-4-4-3-3-3-3-3-3-3-3-8-8-8-8-8-8-8-8-4-4-4-4-4-------| time 
E|---------------------------------6-6-6-6-6-6-6-6-2-2-2-2-2-------| 

Bridge: 
e|---------------------------------| 
B|---------------------------------| 
G|-6->-----------------------------| 
D|-6->-----------------------------| < Play 1 Time 
A|-4->-----------------------------| 
E|---------------------------------| 

* * * * * * * * * * * * * * * * * * * * * * * * * * * * * * * * -------------6-6-6-6-6-6-6-6-| 
D|-6->-----------------------------6->-------------6-6-6-6-6-6-6-6-| < Play 
A|-4->-----------------------------4->-------------4-4-4-4-4-4-4-4-| 1 time 
E|-----------------------------------------------------------------| 
* The palm mutes at the end are a build up. 
* During the build up there is a pick slide, but it's a 3rd guitar so ... 

Chorus Three: 
e|-----------------------------------------------------------------| 
B|-----------------------------------------------------------------| 
G|-6-6-6-6-6-6-6-6-5-5-5-5-5-5-5-5---------------------------------| 
D|-6-6-6-6-6-6-6-6-6-6-6-6-6-6-6-6-8-8-8-8-8-8-8-8-4-4-4-4-4-------| < Play 1 
A|-4-4-4-4-4-4-4-4-3-3-3-3-3-3-3-3-8-8-8-8-8-8-8-8-4-4-4-4-4-------| time 
E|---------------------------------6-6-6-6-6-6-6-6-2-2-2-2-2-------| 

e|-----------------------------------------------------------------| 
B|-----------------------------------------------------------------| 
G|-6---6---6---6---5---5---5---5-----------------------------------| 
D|-6---6---6---6---6---6---6---6---8---8---8---8---4---4---4->-----| < Play 1 
A|-4---4---4---4---3---3---3---3---8---8---8---8---4---4---4->-----| time 
E|---------------------------------6---6---6---6---2---2---2->-----| 

Guitar Two 
========== 
Intro: 
* * * * * * * * * * * * * * * * * * * * * * * * * * * * * * * * -----| time 
E|---------------------------------6---6---6---6---2---2---2->-----| 

Pre-Verse: 
* * * * * * * * * * * * * * * * * * * * * * * * -------------------------------------------------------------| 
D|-6->-------------6-6-6-6-6-6-6-6-8-8-8-8-8-8-8-8-4-4-4-4-4-4-4-4-| < Play 1 
A|-4->-------------6-6-6-6-6-6-6-6-8-8-8-8-8-8-8-8-4-4-4-4-4-4-4-4-| time 
E|-----------------4-4-4-4-4-4-4-4-6-6-6-6-6-6-6-6-2-2-2-2-2-2-2-2-| 

* * * * * * * * * * * * * * * * * * * * * * * * * * * * * * * * -----| time 
E|---------------------------------6---6---6---6---2---2---2->-----|
Página 1 / 1

Letras e título
Acordes e artista

resetar configurações
OK