Cifra Club

Bad Fish Solo

Sublime

Cifra: Principal
exibições 5.093
Tom: E

Transcribed by: Bob
Email: TheCheeseB*

Hey, I've seen some other tabs of this song and they are 
crap! So I decided to make a decent tab of this actually
quite easy solo. 
This is all my work so send all corrections/comments/hate mail
to me at the above stated e-mail address.
Must be viewed in courier to be read correctly

Standard Tuning


------------------------------------------------------------------------------
------------------------------------------------------------------------------
-4h6-6-6b4r-----2-4---1h2p1h2-1-----------------------------------------------
------------2h4-----2-----------2---------------------------------------------
----------------------------------0-2/4---------------------------------------
------------------------------------------------------------------------------

                                                                              


-----------------------5-2----------------------------------------------------
---------------------------2-0------------------------------------------------
-------------2-1--------------2h4-2-------------------------------------------
-----2-4-4p2-----2-2h4--------------------------------------------------------
-2h4--------------------------------------------------------------------------
------------------------------------------------------------------------------
Acordes para:

    0 comentários

      mostrar mais comentários

      Conseguiu tocar?

      0tocaram0ainda não

      Grave um vídeo tocando Bad Fish Solo e mande pra gente!

      00:00 / 00:00
      outros vídeos desta música
      repetirqualidadeautomática
      Outro vídeos desta música
        00:00 / 00:00
        automática
        OK