Price Of Fame Intro

Submersed

tom: C
i'll put in only the chords becouse i cant figure out the picking pattern.

Intro:                       (its not right but something like this:))
Eb|--------------4-------    ------------------4-----|
Ab|--6--7--6--2--2-------    -----6-7---7-------2----|
Db|--6--6--6--4--4-------    ---------6--6---4-------|
Gb|--6--6--6--4--4-------    ---6------6----4-4------|
Bb|--4--4--4--2--2-------    --4-----------2---------|
eb|----------------------    ------------------------|

Chours:
Eb|--------0--2--4----   ----------|
Ab|--6--7--3--2--2----   ----------|
Db|--6--6--3--4--4----x3 --2--6--8-|
Gb|--6--6--3--4--4----   --4--7--9-|
Bb|--4--4--0--2--2----   --4--7--9-|
eb|-------------------   --2--5--7-|

its my first tab dont judge it hard :)
Página 1 / 1

Letras e título
Acordes e artista

resetar configurações
OK