As Lágrimas Falam

Suellen Lima

Composição de: Nilton César
tom: C
[Intro] C9  G  Am  F  G  F  G  G

E|----------------------8-7-5-5-----------------------------------|
B|-/5-5-6-8-8/10--8-8-----------8-6-6-5-----------------------5/8-|
G|--------------------------------------5--5/7----4-5--4-5-7------|
D|----------------------------------------------7-----------------|
A|----------------------------------------------------------------|
E|----------------------------------------------------------------|

            C9
Eu sei como é, quando a gente está no meio do vale
             F
No meio da prova, o dia parece tão longo
             G        F                                   C
E a benção demora, e dentro do peito da gente o coração chora
            C9                                       F
Eu sei como é, de repente o dia tão lindo se torna em noite
                                        G
E quem poderia ajudar fica olhando de longe
 F                                    C     F G
Enquanto do rosto da gente a lágrima rola

C                                                      G
As lágrimas falam, bem mais do que as palavras mais bonitas
                          F
O valor de uma lágrima sofrida
                                C
Só Deus é quem consegue interpretar
C                                               G
As lágrimas falam, melhor do que a mais linda poesia
                                F
Comovem mais que as lindas melodias
                        G         C F G C
Quando a gente deixa a lagrima falar

                 G                      Am
Deixa a lágrima cair, deixa a lágrima rolar
                      F                       C
Deus entende essa linguagem, ele sabe interpretar
                G                        Am
Deixa a lágrima cair, deixa o seu rosto molhar
                   F         G         C
Deus conhece a tua vida, ele te socorrerá

( C  G  Am  F  G  C  F  C )

[Solo]

E|-----------------5-7-8---8-7-7-5-5------------------------|
B|-5-5-6-7-7---7-7--------------------6\5-------------------|
G|----------------------------------------7-5-7/9b------7p9-|
D|------------------------------------------------10--------|
A|----------------------------------------------------------|
E|----------------------------------------------------------|

            C                                       F
Eu sei como é, de repente o dia tão lindo se torna em noite
                                        G
E quem poderia ajudar fica olhando de longe
 F                                    C     F G
Enquanto do rosto da gente a lágrima rola

C                                                      G
As lágrimas falam, bem mais do que as palavras mais bonitas
                          F
O valor de uma lágrima sofrida
                                C
Só Deus é quem consegue interpretar
C                                               G
As lágrimas falam, melhor do que a mais linda poesia
                                F
Comovem mais que as lindas melodias
                        G         C F G C
Quando a gente deixa a lagrima falar

                 G                      Am
Deixa a lágrima cair, deixa a lágrima rolar
                      F                       C
Deus entende essa linguagem, ele sabe interpretar
                G                        Am
Deixa a lágrima cair, deixa o seu rosto molhar
                   F         G         C
Deus conhece a tua vida, ele te socorrerá
 F       G        C
Deixa a lágrima falar
Página 1 / 1

Letras e título
Acordes e artista

resetar configurações
OK