Cifra Club

Aprenda

Demise Of The Clone

Suffocation

Cifra: Principal (violão e guitarra)
tom: A
Album: (Souls to Deny)

Version 1.0 - (09-18-2004)

Transcribed By: (Ghost222)
Email:          (*)


.  - palm mute           /  - slide up to
\  - slide down to       ~  - vibrato
p  - pull off            Suffixes for bend
t  - tap                 f  - full bend    h - half bend
ph - pinched harmonic    q  - quarter bend t - tap bend
*  - see comment         ^  - Hold bend    r release bend
,  - slight palm mute    () - ghost note, sustained note
"  - tremolo note         - Trill

Tunning C F B E G C
gtrs 1+2 
|-------------------------------------------------------------------|
|.-.-.-~------------------------------------------------------------|
|5-5-5-4-------"---"----~*""""""""---|
|7-7-7-6-------7-"-6-"--10--.-.-.*|
|7-7-7-4---"-----8---7--8---5-5-5-4---2---6---2---3---0-------------|
|5-5-5-6---1----------------7-7-7-6---0---4-------------------------|

|-------------------------------------------------------------------|
|-------------------------------------------------------------------|
|---------------------------------"---"-------------------""""""""""|
|.---.-.*"-------7---6---"---"---"---"---6---------|
|7---6-7-6---5--5-6-7-----4---"-----------3---4---6---7-------------|
|5---4-5-4---3--3-4-5---------6-------------------------------------|

|-------------------------------|-----------------------------------|
|-------------------------------|-----------------------------------|
|*"""""|*""""""---|
|.*|-..*.-.|
|4---7---5-----10--6---7--------|-33-4--7--8-----10--6--7--------3-0|
|2---5---7-----8----------------|----2--5--7-----8------------------|

|-------------------------------------------------|-----------------|
|-----------------------------"-"---------"-"-"-"-|-----------------|
|*"-----6-5-------"-5-6-8-9-|-"""""""""""----.|
|.*|-6--------------.|
|4--7--9----10-6--7---------"------"-"------------|-----------------|
|2--5--7----8---------------3------3-4------------|-----------------|

|--------------------------|----------------------------------------|
|--------------------ph----|----------------------------------------|
|---8-----------10---8-----|-...------------------------------------|
|--------------------------|-666------------...--...----------------|
|6-----6--/--8-------------|------...--...--444--777--...-----------|
|--------------------------|------555--888------------444-----------|

|------------------------------|------------------------------------|
|------------------------------|------------------------------------|
|-...--------------------------|...---------------------------------|
|-555------------...--...------|666------------...--...-------------|
|------...--...--333--666--...-|-----...--...--444--777--...--------|
|------222--333------------444-|-----555--888------------444--------|

|------------------------------|------------------------------------|
|------------------------------|------------------------------------|
|-...--------------------------|------------------------------------|
|-555------------...--...--...-|*|
|------...--...--333--666--444-|-7---6-7-6-----5---5-6-7------------|
|------222--333----------------|-5---4-5-4-----3---3-4-5------------|

|------------------------------------------------|------------------|
|-------------"--"---------------"---"---"---"---|------------------|
|"------------6--5-----------"---5---6---8---9---|bridge coming soon!
|5---------------------------6-------------------|------------------|
|------"-------------"--"------------------------|------------------|
|------3-------------3--4------------------------|------------------|
Composição de Suffocation
207 exibições
    • ½ Tom
    • A
    • Bb
    • B
    • C
    • Db
    • D
    • Eb
    • E
    • F
    • F#
    • G
    • Ab
  • Adicionar à lista

    0 comentários

    Ver todos os comentários

    Conseguiu tocar?

    0 Tocaram 0 Ainda não

    Grave um vídeo tocando Demise Of The Clone e nos envie!

    00:00 / 00:00
    outros vídeos desta música
    repetir qualidade Automático
    Outros vídeos desta música
    00:00 / 00:00
    Automático

    Cifra Club Pro

    Aproveite o Cifra Club com benefícios exclusivos e sem anúncios
    Cifra Club Pro
    Aproveite o Cifra Club com benefícios exclusivos e sem anúncios
    OK