Redemtion Intro

Suffocation

tom: A
this type of music isn't really my style but i liked the intro and decided to learn it ^^

Regular Tuning EADGBE

E----------------4-----------------------------------4----------------------|
B-------------5-----5--4--------------------------4-----4--2----------------|
G----------6--------------5-----------5--------5--------------2-----------2-|
D-------6--------------------4-----4--------4--------------------2-----2----|
A----4--------------------------3--------3--------------------------4-------|
E---------------------------------------------------------------------------|

----------------------------------------------0--2--0-----------------0-----|
-------------2-----------------2-----------------------4-----------4--------|
----------2-----2-----------2-----2--------2--------------2-----2-----------|
-------2-----------------2--------------2--------------------1--------------|
-0--4-----------------4--------------3--------------------------------------|
-------------------4--------------------------------------------------------|

and back to the beginning twice more (played 3 times in total)

then it goes into a Drop C tuned power chord part which is just too much noise to understand lol

hope you found this tab usful
Página 1 / 1

Letras e título
Acordes e artista

resetar configurações
OK