Freak Out

Sugar Kane

tom: Ab
E|-----------------------------------|
B|-----------------------------------|
G|-----------------------------------|
D|-------5-5--4-4-5--5-4---5---------|
A|---2-3-3-3--5-5-5------5-----------|
E|-3---------------------------------|

E|-----------------------------------|
B|-----------------------------------|
G|-----------------------------------|
D|-------5-5--4-4-5--5-4-----7-------|
A|---2-3-3-3--5-5-5------5-----------|
E|-3---------------------------------|

vc vai alternando os dois conforme a musica é bem facil

REFÃO 

(Em     C     G     D)

Depois volta pra solinho do começo 
a musica inteira ta ai
Página 1 / 1

Letras e título
Acordes e artista

resetar configurações
OK