Once One Day

Sugar Kane

tom: Db
Versão 1
-======-


                     C#      F#      C#          F#
I lost my heart again             again
C#
We have a long trip
F#
But I don't know what we'll find
C#                 F#
Maybe a good show but not a perfect wife
C#                 F#
Why those histories always have the same end ?
C#                      F#
Why should I believe ?


(REFRÃO - 2X)
F#
Once one day 
Bb                F#
Everything will turn fine 
F#                C#
Everything will turn great 
C#                   G#
And I'll have you with me 

G#
You with me

C#
Waiting someday
F#
Can I'll be at your side ?
C#
Living empty days
F#
Living an empty life
C#                  F#
Why those histories always have the same end ?
C#                      F#
Why should I believe ?


(REFRÃO - 2X)
F#
Once one day 
Bb                F#
Everything will turn fine 
F#                C#
Everything will turn great 
C#                   G#
And I'll have you with me 

G#
You with me



_______________________________________________________





Versão 2
-======-

GUITARRA 2

Intro

e|--------------------------------------------------|
B|--------------------------------------------------|
G|-6-6-6-6-8-10-6-6-6-6-8-10------------------------|
D|--------------------------------------------------|
A|-4-4-4-4-6-8--4-4-4-4-6-8-------------------------|
E|--------------------------------------------------|

Verso
"We have a long trip..."

e|-fica-fazendo-isso-até-começa-o-refrão------------|
B|--------------------------------------------------|
G|-4-4-4-4-4-4-4-4----------------------------------|
D|--------------------------------------------------|
A|-2-2-2-2-2-2-2-2----------------------------------|
E|--------------------------------------------------|

Refrão
"Once one day..."

e|--------------------------------------------------|
B|--------------------------------------------------|
G|-3---6---3---6------------------------------------|
D|-3-4-6-6-3-4-6-6----------------------------------|
A|-1-4-4-6-1-4-4-6----------------------------------|
E|---2---4---2---4----------------------------------|

Ponte

e|--------------------------------------------------|
B|--------------------------------------------------|
G|-6-6-6-6-8-10-6-6-6-6-8-10------------------------|
D|--------------------------------------------------|
A|-4-4-4-4-6-8--4-4-4-4-6-8-------------------------|
E|--------------------------------------------------|

Verso
"Waiting someday"

e|-fica-fazendo-isso-até-começa-o-refrão------------|
B|--------------------------------------------------|
G|-4-4-4-4-4-4-4-4----------------------------------|
D|--------------------------------------------------|
A|-2-2-2-2-2-2-2-2----------------------------------|
E|--------------------------------------------------|

Refrão
"Once one day..."

e|--------------------------------------------------|
B|--------------------------------------------------|
G|-3---6---3---6------------------------------------|
D|-3-4-6-6-3-4-6-6----------------------------------|
A|-1-4-4-6-1-4-4-6----------------------------------|
E|---2---4---2---4----------------------------------|

Oitavadas Parte 1

e|--------------------------------------------------|
B|--------------------------------------------------|
G|-6-6-6-6-6-6-10-10-10-8-8-8-10-8------------------|
D|-----------------------------------2x-------------|
A|-4-4-4-4-4-4-8--8--8--6-6-6-8--6------------------|
E|--------------------------------------------------|

Parte 2

e|--------------------------------------------------|
B|--------------------------------------------------|
G|-3-3-6/5-----6/8-6-6/-----------------------------|
D|-3-3-----4-4-----6----6--2x-----------------------|
A|-1-1-4/3-4-4-4/6-4-4/-6---------------------------|
E|---------2-2----------4---------------------------|

Refrão Final

e|--------------------------------------------------|
B|--------------------------------------------------|
G|-6-6-6-6-6-6-10-10-10-8-8-8-10-8------------------|
D|-----------------------------------2x-------------|
A|-4-4-4-4-4-4-8--8--8--6-6-6-8--6------------------|
E|--------------------------------------------------|

-----------------------------------------------------------------------------------------
GUITARRA 1

Intro

e|-------------------------------------------------|
B|-------------------------------------------------|
G|-6---6-------------------------------------------|
D|-6-4-6-4-----------------------------------------|
A|-4-4-4-4-----------------------------------------|
E|---2---2-----------------------------------------|

Verso

e|-------------------------------------------------|
B|-------------------------------------------------|
G|-6---6---6---6-----------------------------------|
D|-6-4-6-4-6-4-6-4---------------------------------|
A|-4-4-4-4-4-4-4-4---------------------------------|
E|---2---2---2---2---------------------------------|

Refrão
"Once one day..."

e|-------------------------------------------------|
B|-------------------------------------------------|
G|-3---6---3---6-----------------------------------|
D|-3-4-6-6-3-4-6-6---------------------------------|
A|-1-4-4-6-1-4-4-6---------------------------------|
E|---2---4---2---4---------------------------------|

Ponte

e|-------------------------------------------------|
B|-------------------------------------------------|
G|-6---6-------------------------------------------|
D|-6-4-6-4-----------------------------------------|
A|-4-4-4-4-----------------------------------------|
E|---2---2-----------------------------------------|

Verso

e|-------------------------------------------------|
B|-------------------------------------------------|
G|-6---6---6---6-----------------------------------|
D|-6-4-6-4-6-4-6-4---------------------------------|
A|-4-4-4-4-4-4-4-4---------------------------------|
E|---2---2---2---2---------------------------------|

Refrão
"Once one day..."

e|-------------------------------------------------|
B|-------------------------------------------------|
G|-3---6---3---6-----------------------------------|
D|-3-4-6-6-3-4-6-6---------------------------------|
A|-1-4-4-6-1-4-4-6---------------------------------|
E|---2---4---2---4---------------------------------|

Oitavadas Parte 1

e|-------------------------------------------------|
B|-------------------------------------------------|
G|-3---6---3---6-----------------------------------|
D|-3-4-6-6-3-4-6-6---------------------------------|
A|-1-4-4-6-1-4-4-6---------------------------------|
E|---2---4---2---4---------------------------------|

Oitavadas Parte 2

e|-------------------------------------------------|
B|-------------------------------------------------|
G|-3-3-------6-6-----------------------------------|
D|-3-3--4-4--6-6--6-6------------------------------|
A|-1-1--4-4--4-4--6-6------------------------------|
E|------2-2-------4-4------------------------------|

Refrão Final

e|-------------------------------------------------|
B|-------------------------------------------------|
G|-3---6---3---6-----------------------------------|
D|-3-4-6-6-3-4-6-6---------------------------------|
A|-1-4-4-6-1-4-4-6---------------------------------|
E|---2---4---2---4---------------------------------|
Página 1 / 1

Letras e título
Acordes e artista

resetar configurações
OK