Velocidade

Sugar Kane

Composição de: Vini
tom: B
Base Da Musica

    B5    F#5  E5  F#5
e:------------------------------------|
b:------------------------------------|
g:---4--------------------------------| Esse  .. (Dois Pontos) Representa que é tocada varias vezes.
d:---4-----4------2-----4-------------|
a:---2..---4------2-----4-------------|
e:---------2..----0..---2..-----------|

 Refrao :
e:-----------------------|   
b:-----------------------|
g:-8----9----4-----------|  
d:-8----9----4----4------|
a:-6..--7..--2..--4------|
e:----------------2..----|


 Letra
=======

pare de pensar no que passou
já é dificil de viver bem o presente
luzes apagadas, frases esquecidas
e a velocidade que mudamos nossas...
vidas..

eu quero ter você pra sempre
eu quero ter você somente neste instante
que pertence a nós
o futuro, o presente e tudo que virá depois

eu nunca te julguei pelos seus erros
já é dificil conviver com meus defeitos
águas que passaram, conselhos de amigos
e o modo como tudo faz sentido
tudo faz sentido...

eu quero ter você pra sempre
eu quero ter você somente neste instante
que pertence a nós
o futuro, o presente e tudo que virá depois

luzes apagadas, frases esquecidas
e a velocidade que mudamos nossas vidas
águas que passaram, conselhos de amigos
e o modo como tudo faz sentido..
tudo faz sentido..
tudo faz sentido....
Página 1 / 1

Letras e título
Acordes e artista

resetar configurações
OK