All Messed Up Intro

Sum 41

Tom: B

-----------7-7------|   |--------7-7--------------7-7----------|
---------------7-7--|   |------------7-7--------------7-7------|
--------------------|   |--------------------------------------| 
---9-9-9------------|x2 |-2-2-2------------4-4-4---------------|
---9-9-9------------|   |-2-2-2------------4-4-4---------------|
---7-7-7------------|   |-0-0-0------------2-2-2---------------|

-----------7-7---------------7-7--------------7-7------------------7-7-------|
---------------7-7---------------7-7--------------7-7------------------7-7---|
-----------------------------------------------------------------------------|
---9-9-9--------------8-8-8------------9-9-9------------11-11-11-------------|
---9-9-9--------------8-8-8------------9-9-9------------11-11-11-------------|
---7-7-7--------------6-6-6------------7-7-7-------------9--9--9-------------|

     P.M.......(Slowly fade out from plalm-muting)
---------------------------------------|
---------------------------------------|
---------------------------------------|
-----\9-9-9-9-9-9-9-9-9-9-9-9-9-9-9-9--|
-----\9-9-9-9-9-9-9-9-9-9-9-9-9-9-9-9--|
-----\7-7-7-7-7-7-7-7-7-7-7-7-7-7-7-7--|
Página 1 / 1

Letras e título
Acordes e artista

resetar configurações
OK