Cifra Club

Confusion and Frustation in Modern Times

Sum 41

Cifra: Principal (violão e guitarra)
Tom: G
Gtr.Legends:
/ - slide
. - palm muting
~ - let it ring
x - dead string or scratching

Gtr.Tuning:Standard(Normal)

Intro prt.1:
e|-----------------------------------------------------------|
B|-----------------------------------------------------------|
G|--------99999-44444----------------99999-44444-------------|
D|-666666-99999-44444-44444---666666-99999-44444-44444--2~---|
A|-666666-77777-22222-44444---666666-77777-22222-44444--2~---|
E|-444444-------------22222---444444-------------22222--0~---|

Intro prt.2
e|-------------------------------------------------|
B|-------------------------------------------------|
G|-------------------------------------------------|
D|-44444-22222-66666-22222---4xxxx-22222-6-xxxxx---|
A|-22222-22222-66666-22222---2xxxx-22222-6-xxxxx---|
E|-------00000-44444-00000----xxxx-00000-4-xxxxx---|
                                         .

Verse 1:
e|---------------------------------------------------------------------------------------------|
B|---------------------------------------------------------------------------------------------|
G|---------------------------------------------------------------------------------------------|
D|-44444-66666-99999---44444-66666-99999---6~--6~--9~---44444-4444---6~--6~---9~---4444-4444---|
A|-22222-66666-77777---22222-66666-77777---6~--6~--7~---22222-4444---6~--6~---7~---2222-4444---|
E|-------44444---------------44444---------4~--4~-------------2222---4~--4~-------------2222---|

e|-------------------------------------|
B|-------------------------------------|
G|-------------------------------------|
D|-66666-22222-44444-44444---66666-2---|
A|-66666-22222-22222-44444---66666-2---|
E|-44444-00000-------22222---44444-0---|
    ....  ....  ....  ....    .... .

Chorus 1:
e|-------------------------------------------------|
B|-------------------------------------------------|
G|-44444---------------------44444-----------------|
D|-44444-44444-66666-22222---44444-44444-66666-2---|
A|-22222-44444-66666-22222---22222-44444-66666-2---|
E|-------22222-44444-00000---------22222-44444-0---|
                                               .

Pre-Verse 2:Play Intro prt.2

Verse 2:Play Verse 1

Chorus 2
e|-----------------------------------------------------|
B|-----------------------------------------------------|
G|-44444---------------------44444---------------------| 2x
D|-44444-44444-66666-22222---44444-44444-66666-22222---|
A|-22222-44444-66666-22222---22222-44444-66666-22222---|
E|-------22222-44444-00000---------22222-44444-00000---|
                                               

Bridge prt.1:
e|-----------------------------------------------------------------------------------
B|-----------------------------------------------------------------------------------
G|-----------------------------------------------------------------------------------
D|-6~--6~--2~----6~--6~--2~---6~--6~--2~--44444---4444-8---444444-2222-66666-44444---
A|-6~--6~--2~----6~--6~--2~---6~--6~--2~--44444---2222-6---222222-2222-66666-44444---
E|-4~--4~--0~----4~--4~--0~---4~--4~--0~--22222-------------------0000-44444-22222---
                                          xxxxx
-------------------------------------|
-------------------------------------|
-------------------------------------|
-44444-22222--6~--66/8~--88/9~--2~---|
-22222-22222--x---xx-x---xx-x---2~---|
-------00000--4~--44/6~--66/7~--0~---|

Bridge prt.2:Play Chorus 2

Last prt. of Bridge:
Gtr.1
e|--------------------------------|
B|--------------------------------|
G|-4444444444444444444444444444---|
D|-4444444444444444444444444444---|
A|-2222222222222222222222222222---|
E|--------------------------------|

Gtr.2
e|--------------------------------|
B|--------------------------------|
G|-1111111111111111111111111111---|
D|--x-x-x-x-x-x-x-x-x-x-x-x-x-x---|
A|--9-9-9-9-9-9-9-9-9-9-9-9-9-9---|
E|--------------------------------|

Repeat Chorus 2:

Outro:
Gtr.1
e|---------------------------------------------------------|
B|---------------------------------------------------------|
G|-16161616161616161616161616161616161616161616--------4---|
D|-xxxxxxxxxxxxxxxxxxxxxxxxxxxxxxxxxxxxxxxxxxxx-xxxxx--4---|
A|-14141414141414141414141414141414141414141414-xxxxx--2---|
E|----------------------------------------------xxxxx------|
                                                       .

Gtr.2 Enters:
e|-----------------------------------------------------------|
B|-----------------------------------------------------------|
G|-------------11-11--9-9--------------11-11--9-9--------4---|
D|-9-9--11-11---------------9-9--11-11-------------xxxxx-4---|
A|-------------------------------------------------xxxxx-2---|
E|-------------------------------------------------xxxxx-----|
                                                         .
exibições 2.851
Acordes para:
    Composição: Deryck Whibley Colaboração e revisão:
    • Ruan Corrêa

    0 comentários

    mostrar mais comentários

    Conseguiu tocar?

    0 tocaram 0 ainda não

    Grave um vídeo tocando Confusion and Frustation in Modern Times e mande pra gente!

    00:00 / 00:00
    outros vídeos desta música
    repetir qualidade Automático
    Outros vídeos desta música
    00:00 / 00:00
    Automático
    OK