Cifra Club

March Of The Dogs

Sum 41

Cifra: Principal (violão e guitarra)
Tom: E
A música começa assim, tocando várias vezes.

Intro A

e|---------------------------------------------------      
B|---------------------------------------------------       
G|---------------------------------------------------
D|---------------------------------------------------
A|---------------------------------------------------
E|7-7-7-7-7-7-7-7-7-7-7-7-7-7-7-7-7-7-7-7-7----------

A guitarra principal continua fazendo o msm riff e entra o baixo fazendo:

e|-------------------------------------------------------------------------------      
B|------------------------------------------------------------------------------- 
G|-------------------------------------------------------------------------------
D|-------------------------------------------------------------------------------
A|----------------------------------------2-2-2-2-4-4-4-4-6-6-6-6-7-7-7-7--------
E|7-7-7-7-4-4-4-4-0-0-0-0-2-2-2-2------------------------------------------------

E as duas guitarras juntas fazem:

Intro B

e|---------------------------------------------------------------------
B|--------------------------------4-4-4-4-6-6-6-6-8-8-8-8-9-9-9-9------
G|--------------------------------4-4-4-4-6-6-6-6-8-8-8-8-9-9-9-9------
D|9-9-9-9-6-6-6-6-2-2-2-2-4-4-4-4-2-2-2-2-4-4-4-4-6-6-6-6-7-7-7-7-9----
A|9-9-9-9-6-6-6-6-2-2-2-2-4-4-4-4---------------------------------9----
E|7-7-7-7-4-4-4-4-0-0-0-0-2-2-2-2---------------------------------7----

A guitarra principal volta a fazer a Intro A, enquanto a guitarra base faz:

e|------------------------------
B|------------------------------
G|------------------------------
D|9-7/9-7/9-7/9-7/9-7/9-7/9-----
A|9-7/9-7/9-7/9-7/9-7/9-7/9-----
E|7-5/7-5/7-5/7-5/7-5/7-5/7-----

Quando tah tocando isso, o Deryck canta:

Ladies and Gentlemen of the Underclass,
The president of the United States of America,
Is Dead!

E no verso a base faz:
e|----------------
B|----------------
G|----------------
D|7/9-0/2-2-4/6---
A|7/9-0/2-2-4/6---
E|5/7-0/0-0-2/4---

Enquanto a guitarra solo faz:

e|----------------------------------------------------------------------------------------------
B|----------------------------------------------------------------------------------------------
G|----------------------------------------------------------------------------------------------
D|----------------------------------------------------------------------------------------------
A|----------------------------------------------------------------------------------------------
E|777777774444444400000002222222200000000222222224444444422222222-------------------------------


I dont belive in the politics,
The chosen fools and hypocrits,
We walk a line that stretched so fine,
It's death or glory having time?

E o pré-refrão é assim:

e|--------------------------------------        
B|--------------------------------------
G|------------------4-4-4-4-------------     2x
D|2-2-2-2-4-4-4-4-4-4-4-4-6-6-6-6-------
A|2-2-2-2-4-4-4-4-2-2-2-2-6-6-6-6-------
E|0-0-0-0-2-2-2-2---------4-4-4-4-------

And here we go,
I guess the resolution,
No-one knows,
Who'll lead this revolution now,
attention grows,
the way to a conclusion,


Quando o Deryck Canta “It's too late their's no time", só uma Guitarra faz:

G|----------------
D|----4-----------
A|2-2—--2-----6---
E|--------4-4----4

E dps, volta em:

e|--------------------------------    
B|--------------------------------
G|--------------------------------
D|2-2-2-2-2-2-2-2-4-4-4-4-4-4-----
A|2-2-2-2-2-2-2-2-4-4-4-4-4-4-----
E|0-0-0-0-0-0-0-0-2-2-2-2-2-2-----

It's too late their's no time,
All for none, never was two, three, four

Refrão:

e|------------------
B|------------------
G|4-4---------------
D|4-4-6-6-2-2-4-4---            3x, sendo q na 3ª repete cada acorde 4x
A|2-2-6-6-2-2-4-4---
E|----4-4-0-0-2-2---

March of the dogs,
to a beat of dissolution
sworn under god,
breeding panic and confusion,
the white flag is down,
send in the clows,
the carnival of sins is nowhere to begin

Pós-refrão:

e|----------------------------------------------------------------------------
B|----------------------------------------------------------------------------
G|----------------------------------------------------------------------------
D|6-6-6-6-6-6-6-6-4-4-4-4-4-4-4-4-2-2-2-2-2-2-2-2-4-4-4-4-4-4-4-4-------------
A|6-6-6-6-6-6-6-6-4-4-4-4-4-4-4-4-2-2-2-2-2-2-2-2-4-4-4-4-4-4-4-4-------------
E|4-4-4-4-4-4-4-4-2-2-2-2-2-2-2-2-0-0-0-0-0-0-0-0-2-2-2-2-2-2-2-2-------------

Dps repete o verso, sendo q só repete a parte da guitarra principal.

It may be i'm a pessimist,
but i say we need an exorcist,
the root of all evil standing tall,
under god and above us all,

Pré-refrão:

And here we go,
Im getting desperation,
all we know,
confusion and frustration,
ditch your clothes,
no vision of salvation

It's too late their's no time,
All for none, never was two, three, four

Repete o Refrão:

March of the dogs,
to a beat of dissolution
sworn under god,
breeding panic and confusion,
the white flag is down,
send in the clows,
the carnival of sins is nowhere to begin,

Antes do solo, a Guitarra faz:

e|-----
B|-----
G|4~~~~
D|4~~~~
A|2~~~~
E|-----

hey! hey! hey! hey!
A-one, two, three, four

Solo:

e|----------------------------------------------------------------------------------
B|----------------------------------------------------------------------------------
G|----------------------------------------------------------------------------------
D|----------------------------------------------------------------------------------
A|11-9-6-7-4-2-0-1-2-2-4-2-1------11-9-6-7-4-2-0-1-2-2-4-2-1-2-1-2-4----------------
E|---------------------------2-4----------------------------------------------------

e|--------------------------------------------------------------------------------------------------
B|--------------------------------------------------------------------------------------------------
G|7-7-7-7-6-6-6-6-4-4-4-4-6-6-6-6-4-3-4-6-7-7-7-7-6-6-6-6-4-4-4-4-6-6-6-6-4-3-4-3-4-3-4-------------
D|--------------------------------------------------------------------------------------------------
A|--------------------------------------------------------------------------------------------------
E|--------------------------------------------------------------------------------------------------

Dps do Solo, a Guitarra base faz:

e|---------------------------------------------
B|---------------------------------------------
G|---------------------------------------------
D|9-7/9-7/9-0/2-4-7/9-0/2-4-7/9-0/2-4----------
A|9-7/9-7/9-0/2-4-7/9-0/2-4-7/9-0/2-4----------
E|7-5/7-5/7-0/0-2-5/7-0/0-2-5/7-0/0-2----------

E a guitarra principal faz:

e|----------------------------------------------------------------------------------------------
B|----------------------------------------------------------------------------------------------
G|----------------------------------------------------------------------------------------------
D|----------------------------------------------------------------------------------------------
A|----------------------------------------------------------------------------------------------
E|777777774444444400000002222222200000000222222224444444422222222-------------------------------

Another president dead,
because they blew off his head,
no more kids to be led,
yes to heaven he fled,
was it something he said,
cause of who's in he bed,
by who will we be led?
by whose hand will we be fed?
all the lies by the lying liars who said
we'll be fine,
its ok,
hey look mum no ....

Final:

e|-----------------------------------
B|-----------------------------------
G|4-4-4-4-----------6-6-6-6----------

D|4-4-4-4-6-6-6-6-6-6-6-6-4-4-4-4----       4x E acaba em um B5
A|2-2-2-2-6-6-6-6-4-4-4-4-4-4-4-4----
E|----------4-4-4-4----------2-2-2-2-
exibições 4.889
Acordes para:
    Composição: Deryck Whibley Colaboração e revisão:
    • Ruan Corrêa

    0 comentários

    mostrar mais comentários

    Conseguiu tocar?

    1 tocaram 0 ainda não

    Grave um vídeo tocando March Of The Dogs e mande pra gente!

    00:00 / 00:00
    outros vídeos desta música
    repetir qualidade Automático
    Outros vídeos desta música
    00:00 / 00:00
    Automático
    OK